Blink 182

Carousel Budha Bass Tabs



More from Blink 182

Blink 182 Tabs
Blink 182 Chords
Blink 182 Bass
Blink 182 Lyrics



CD intro starts here (x2)
G|-14-14-14--12-12-12--11-11-| |-6-6-6--7-7-7--9-9-9-9-9-9-9-|
D|-0--0--0---0--0--0---0--0--| |-7-7-7--7-7-7--7-7-7-7-7-7-7-|
A|---------------------------| x2 |-----------------------------|
E|---------------------------| |-----------------------------|

G|-12-12-12--11-11-11--9-9---12-12-12--11-11-11--9-9------------------|
D|-9--9--9---9--9--9---9-9---9--9--9---9--9--9---9-9-12-12-12-12-12-12|
A|---------------------------------------------------9--9--9--9--9--9-|
E|--------------------------------------------------------------------|
(repeat)

live intro startes here (note when played live it is always faster)
G|--11-11-12-14-12-11-----6-6-7-9-7-6-----9-9-11-12-11-9-11-----7-----7---7-|
D|-0-----------------127-------------7/9-------------------5-5---5-5---5---|
A|--------------------------------------------------------------------------|
E|--------------------------------------------------------------------------|

G|---11-11-12-14-12-11-----6-6-7-9-7-6-----9-9-11-12-12-11-11---777777-|
D|--0-----------------127-------------7/9----------------------555555-|
A|---------------------------------------------------------------------|
E|---------------------------------------------------------------------|
(listen to song for rhythem)
G|11111111--9-9-9-9--11111111-7-7-7-7-|
D|0-0-0-0---7-7-7-7--9-9-9-9--5-5-5-5-|
A|------------------------------------| x4
E|------------------------------------|

Guitar Part

G|11111111--9-9-9-9--11111111-7-7-7-7-|
D|0-0-0-0---7-7-7-7--9-9-9-9--5-5-5-5-|
A|------------------------------------| x2
E|------------------------------------|

Pre Verse
G|------------------------------|
D|------------------------------|
A|-555555-000000-222222---------|
E|----------------------333333--|

Verse
G|--------------------------------------|
D|--------------------------------------|
A|-55555555-00000000-22222222-----------| x2
E|-----------------------------33333333-|

Chorus %%= Pause "just another"
G|---------------------------------------------------------------{%%}---------|
D|---------------------------------------------------------------{%%}---------|
A|-55555555-77777777-------------------55555555-77777777---------{%%}---------|
E|-------------------55555555-33333333-------------------55555555{%%}33333333-|

Guitar Part

Verse “Now as I walk down the street”

Verse “A tank of gas is a treasure to me”

Bridge
G|-------------|-----------------|
D|-------------|-----------------|
A|-5~-0~-2~----|-5~-0~-2222------|
E|----------3~-|------------3333-|

Verse

Chorus

Taken from The BassMasta -- http://www.tabs-database.com



Get this song at amazon.com      Ebay     Ringtones Ringtones  


Learn to play: Songwriting, Piano, Harmonica, Guitar
More Blink 182 lyrics available at Muzikum

Related Blink 182 Bass Tabs

The anthem pt2 bass
Carousel Cheshire Cat bass
Carosel bass
Carousel Live bass
This Song That Sucks bass
Alone bass
MH 4.18.2011 bass
Rich Lips bass
Josie (with Lyrics) bass
Dont bass
Im Sorry bass
Chesire Cat bass
Point Of View bass
A New Hope Solo bass
Album bass
Peggy Sue bass
Depends bass
Kaleidoscope bass
Voyer bass
Toast And Bananas bass


Guitar Tabs









All tabs are property and copyright of their owners. All tabs provided for educational purposes only. Privacy Policy, DMCA

Online converter - videoconverter.com