Blink 182

Carousel Buddha Bass Tabs



More from Blink 182

Blink 182 Tabs
Blink 182 Chords
Blink 182 Bass
Blink 182 Lyrics



The band i'm in plays this every time we have band practice so i figured i would just tab
it for all of you. It is also pretty fun to play along with the cd!
Please Rate



G----11-11-12-14-12-11-----6-6-7-9-7-6----9-9-11-12-11-9-11---7-7---7-7---7-
D-12------------------12--7-----------7--9-------------------5-----5-----5--
A----------------------------------------------------------------------------
E----------------------------------------------------------------------------

G---11-11-12-14-12-11-----6-6-7-9-7-6----9-9-11-12-11-9-11---7-7-7-7-7-7-7
D-12-----------------12--7-----------7--9-----------------9--5-5-5-5-5-5-5
A-------------------------------------------------------------------------
E-------------------------------------------------------------------------

G-11-11-11-11-11-11--9-9-9-9-9-9--11-11-11-11-11-11--7-7-7-7-7-7 x4
D-0--0--0--0--0--0--7-7-7-7-7-7--9--9--9--9--9--9--5-5-5-5-5-5
A-------------------------------------------------------------
E-------------------------------------------------------------

Wait 2 riffs

G-11-11-11-11-11-11--9-9-9-9-9-9--11-11-11-11-11-11--7-7-7-7-7-7 x2
D-0--0--0--0--0--0--7-7-7-7-7-7---9--9-9--9---9--9--5-5-5-5-5-5
A--------------------------------------------------------------
E--------------------------------------------------------------

G--------------------------------------------------------------- x6
D-----------------------------------------------5-5-5-5-5-5-5-5-
A-5-5-5-5-5-5-5-5-----------------------------------------------
E----------------5-5-5-5-5-5-5-5-7-7-7-7-7-7-7-7----------------

G--------------------------------------------------------------- x2
D--------------------------------7-7-7-7-7-7-7-7-5-5-5-5-5-5-5-5
A-5-5-5-5-5-5-5-5-7-7-7-7-7-7-7-7-------------------------------
E---------------------------------------------------------------

G-------------------------------------------------------
D--------------------------------7-7-7-7-7-7-7-7-5-7-5-4
A-5-5-5-5-5-5-5-5-7-7-7-7-7-7-7-7-----------------------
E-------------------------------------------------------

G-----------------------------------------------------------------
D--------------------------------7-7-7-7-7-7-7-7-5-5-5-5-5-5-5-5-4
A-5-5-5-5-5-5-5-5-7-7-7-7-7-7-7-7---------------------------------
E-----------------------------------------------------------------

G-11-11-11-11-11-11--9-9-9-9-9-9--11-11-11-11-11-11--7-7-7-7-7-7 x2
D-0--0--0--0--0--0--7-7-7-7-7-7--9---9--9--9--9--9--5-5-5-5-5-5
A---------------------------------------------------------------
E---------------------------------------------------------------

G--------------------------------------------------------------- x2
D------------------------------------------------5-5-5-5-5-5-5-5
A-5-5-5-5-5-5-5-5-----------------------------------------------
E-----------------5-5-5-5-5-5-5-5-7-7-7-7-7-7-7-7---------------

G--------------------------------------------------------------- x2
D---------------------------------------------------------------
A-5-5-5-5-5-5-5-5-----------------------------------------------
E----------------5-5-5-5-5-5-5-5-7-7-7-7-7-7-7-7-3-3-3-3-3-3-3-3


G----------------------------------
D----------5----------------5-5-5-5
A-5-----------5--------------------
E----5--7--------5--7-7-7-7--------

G---------------------------------------------------------------- x2
D---------------------------------7-7-7-7-7-7-7-7-5-5-5-5-5-5-5-5
A-5-5-5-5-5-5-5-5-7-7-7-7-7-7-7-7--------------------------------
E----------------------------------------------------------------

G--------------------------------------------------------
D---------------------------------7-7-7-7-7-7-7-7-5-7-5-4
A-5-5-5-5-5-5-5-5-7-7-7-7-7-7-7-7------------------------
E---------------------------------------------------------

G------------------------------------------------------------------
D--------------------------------7-7-7-7-7-7-7-7-5-5-5-5-5-5-5-4---
A-5-5-5-5-5-5-5-5-7-7-7-7-7-7-7-7--------------------------------5-
E------------------------------------------------------------------

Taken from The BassMasta -- http://www.tabs-database.com



Get this song at amazon.com      Ebay     Ringtones Ringtones  


Learn to play: Songwriting, Piano, Harmonica, Guitar
More Blink 182 lyrics available at Muzikum

Related Blink 182 Bass Tabs

Fuck A Dog bass
After Midnight bass
Not Now bass
Alone bass
Satans Theme bass
The Grandpa Song bass
Boring bass
Zulu bass
Dammit (live) At The Drive In bass
Romeo And Rebecca bass
Reckless Abandon bass
This Is Home bass
Asthenia bass
I Miss You (new Complete Version) bass
Every Time I Look For You bass
Story Of A Lonely Guy bass
Strings bass
Longest Line bass
Wishing Well bass
Damnit W/intro bass


Guitar Tabs









All tabs are property and copyright of their owners. All tabs provided for educational purposes only. Privacy Policy, DMCA