Blink 182

Blowjob Song Bass Tabs



More from Blink 182

Blink 182 Tabs
Blink 182 Chords
Blink 182 Bass
Blink 182 Lyrics




-Intro- x1 (0:06)
G:---------------------------------------------------------------------
D:---------------------------------------------------------------------
A:-2~------------------------------------------------------------------
E:-------0~----2~----0~-------------------------------------------------

-Chorus- x6 (0:12)
G:---------------------------------------------------------------------
D:---------------------------------------------------------------------
A:-2-2-2-2-2-2-2-2-----------------------------------------------------
E:------------------0-0-0-0-0-0-0-0--2-2-2-2-2-2-2-2--0-0-0-0-0-0-0-0--

-Outro- x1 (0:37)
G:---------------------------------------------------------------------
D:---------------------------------------------------------------------
A:-2~------------------------------------------------------------------
E:---------------------------------------------------------------------



Get this song at amazon.com      Ebay     Ringtones Ringtones  


Learn to play: Songwriting, Piano, Harmonica, Guitar
More Blink 182 lyrics available at Muzikum

Related Blink 182 Bass Tabs

Boring bass
This Is Home bass
Adams Song bass
Wasting Time bass
1st Date bass
M+ms bass
Waggy bass
Dicklips bass
Carousel Buddha bass
13 Miles bass
The Grandpa Song bass
Romeo And Rebecca bass
A New Hope Solo bass
Peggy Sue bass
Staytoghetherforthekids-noobsver bass
Unreleased Demo (instrumental) bass
Online Song bass
Fallen Interlude bass
All Of This bass
Blew Job bass


Guitar Tabs









All tabs are property and copyright of their owners. All tabs provided for educational purposes only. Privacy Policy, DMCA

Online converter - videoconverter.com