Blink 182

Big Day Out Tabs



More from Blink 182

Blink 182 Tabs
Blink 182 Chords
Blink 182 Bass
Blink 182 Lyrics



This is the entire Big Day Out concert they did in Australia.
-----------------------------------------------------------------------------------------------------------------



1., Family Reunion

~ - Hold the note


Part 1

Distortion

e|--------------------------------------------------------------------|
B|--------------------------------------------------------------------|
G|-2-2~~~~~~~~~~~~~~~~~~~~~~~~~~~~~~~~~~~~~~~~~~~~~~~~~~~~~~~~~~~~~~~-|
D|-2-2~~~~~~~~~~~~~~~~~~~~~~~~~~~~~~~~~~~~~~~~~~~~~~~~~~~~~~~~~~~~~~~-|
A|-0-0~~~~~~~~~~~~~~~~~~~~~~~~~~~~~~~~~~~~~~~~~~~~~~~~~~~~~~~~~~~~~~~-|
E|--------------------------------------------------------------------|

Part 2

Distortion Palm Mute

e|--------------------------------------------------------------------|
B|--------------------------------------------------------------------|
G|-2-2-2-2-2-2-2-2--4-4-4-4-4-4-4-4--6-6-6-6-6-6-6-6--7-7-7-7-7-7-7-7-|
D|-2-2-2-2-2-2-2-2--4-4-4-4-4-4-4-4--6-6-6-6-6-6-6-6--7-7-7-7-7-7-7-7-|
A|-0-0-0-0-0-0-0-0--2-2-2-2-2-2-2-2--4-4-4-4-4-4-4-4--5-5-5-5-5-5-5-5-|
E|--------------------------------------------------------------------|

Part 3

^ - Play with Palm Mute

e|--------------------------------------------------------------------|
B|--------------------------------------------------------------------|
G|---------2------------2-----------2-------------7~~-----------------|
D|-----------2------------------------2-----------7~~-----------------|
A|-0-0-0-0------2-2-2-2-----4-4-4-4------5-5-5-5--5~~-----------------|
E|--------------------------------------------------------------------|


Part 4

w/ Distortion

e|--------------------------------------------------------------------|
B|--------------------------------------------------------------------|
G|-2-2-2-2-2-2-2-2--4-4-4-4-4-4-4-4--6-6-6-6-6-6-6-6--7-7-7-7-7-7-7-7-|
D|-2-2-2-2-2-2-2-2--4-4-4-4-4-4-4-4--6-6-6-6-6-6-6-6--7-7-7-7-7-7-7-7-|
A|-0-0-0-0-0-0-0-0--2-2-2-2-2-2-2-2--4-4-4-4-4-4-4-4--5-5-5-5-5-5-5-5-|
E|--------------------------------------------------------------------|

-----------------------------------------------------------------------------------------------------------------


2.Dumpweed

Intro
e-------------------------------------------------------------
B-------------------------------------------------------------
G-------------------------------------------------------------
D----6-6h7p6-------------6-6h7p6------------6-6h7p6-----------
A--------------0--9-7----------------0-9--0-----------0--9-0--
E--0---------7--------0---------7-------------------7---------

e------------------
B------------------
G------------------
D----6-6h7p6--9----
A--0--------------9
E---------------7--

e--4p0---0-4p0---0--2p0---0--2p0---0-4p0---0--4p0---0--5p0---0--5p0---0-
B------0-------0--------0--------0-------0--------0--------0--------0---
G-----------------------------------------------------------------------
D-----------------------------------------------------------------------
A-----------------------------------------------------------------------
E-----------------------------------------------------------------------

e----------------------------------------------------------------------
B----------------------------------------------------------------------
G----------------------------------------------------------------------
D-------------44444------------44444--2-2222222--44444--22222222--44444
A--2-2222222--22222--22222222--22222--0-0000000--22222--00000000--22222
E--0-0000000---------00000000------------------------------------------
pm ............................... .............. ...............
e-------------------------------------------------------------
B-------------------------------------------------------------
G-------------------------------------------------------------
D----6-6h7p6-------------6-6h7p6------------6-6h7p6-----------
A--------------0--9-7----------------0-9--0-----------0--9-0--
E--0---------7--------0---------7-------------------7---------

e------------------
B------------------
G------------------
D----6-6h7p6--9----
A--0--------------9
E---------------7--

e----------------------------------------
B----------------------------------------
G------------44444444--22222222--44444444
D--22222222--44444444--22222222--44444444
A--22222222--22222222--00000000--22222222
E--00000000------------------------------

e------------------------------------
B------------------------------------
G------------44444444--22222222--4--4
D--22222222--44444444--22222222--4--4
A--22222222--22222222--00000000--2--2
E--00000000--------------------------

e--4p0---0-4p0---0--2p0---0--2p0---0-4p0---0--4p0---0--5p0---0--5p0---0-
B------0-------0--------0--------0-------0--------0--------0--------0---
G-----------------------------------------------------------------------
D-----------------------------------------------------------------------
A-----------------------------------------------------------------------
E-----------------------------------------------------------------------

e----------------------------------------------------------------------
B----------------------------------------------------------------------
G----------------------------------------------------------------------
D-------------44444------------44444--2-2222222--44444--22222222--44444
A--2-2222222--22222--22222222--22222--0-0000000--22222--00000000--22222
E--0-0000000---------00000000------------------------------------------
pm ............................... .............. ...............
e----------------------------------------
B----------------------------------------
G------------44444444--22222222--44444444
D--22222222--44444444--22222222--44444444
A--22222222--22222222--00000000--22222222
E--00000000------------------------------

e------------------------------------
B------------------------------------
G------------44444444--22222222--4--4
D--22222222--44444444--22222222--4--4
A--22222222--22222222--00000000--2--2
E--00000000--------------------------

e-------------------------------------------------------------
B-------------------------------------------------------------
G-------------------------------------------------------------
D------------44444------------44444--22222222--44444--22222222
A--22222222--22222--22222222--22222--00000000--22222--00000000
E--00000000---------00000000----------------------------------
pm ...........................................................

e-4p0---0----2p0---0----4p0---0----5p0---0--
B-----0---0------0---0------0---0------0---0
G-------------------------------------------
D-------------------------------------------
A-------------------------------------------
E-------------------------------------------

e-4p0---0----2p0---0----4p0---0----5p0---0-2
B-----0---0------0---0------0---0------0----
G-------------------------------------------
D-------------------------------------------
A-------------------------------------------
E-------------------------------------------

e-4p0---0----2p0---0----4p0---0----5p0---0--
B-----0---0------0---0------0---0------0---0
G-------------------------------------------
D-------------------------------------------
A-------------------------------------------
E-------------------------------------------

e-4p0---0----2p0---0----4p0---0----5p0---0-2
B-----0---0------0---0------0---0------0----
G-------------------------------------------
D-------------------------------------------
A-------------------------------------------
E-------------------------------------------

-----------------------------------------------------------------------------------------------------------------


3.
Don't Leave Me

Intro (really fast)
G|----------2-2-2-2----------7-7-7-7----------4-4-4-4-7-7-7-7-9-9-9-9--|
D|----------2-2-2-2----------7-7-7-7----------4-4-4-4-7-7-7-7-9-9-9-9--|
A|--0-0-0-0-0-0-0-0--0-0-0-0-5-5-5-5--0-0-0-0-2-2-2-2-5-5-5-5-7-7-7-7--|
PM-----| PM-----| PM-----|

Verse: Only Bass

Chorus
G|--2-2-2-2-4-4-4-4-7-7-7-7-9-9-9-9--|
D|--2-2-2-2-4-4-4-4-7-7-7-7-9-9-9-9--|
A|--0-0-0-0-2-2-2-2-5-5-5-5-7-7-7-7--|

-----------------------------------------------------------------------------------------------------------------



4. Pathetic


e----------------------------------------------------
b---5-7-0-0-0-0-5-7-0-0-0-0-5-7-0-0-0-0-4-0-4-0-4----
g----------------------------------------------------
d----------------------------------------------------
a----------------------------------------------------
e----------------------------------------------------

Riff #1: 4x - I know i'm pathetic i knew when she said it....

e--------------------------------------------------------------------
b--------------------------------------------------------------------
g--4-4-4-4-4-4-4-4---11-11-11-11-11-11-11-11-11---9-9-9-9-9-9-9-9-9---
d--4-4-4-4-4-4-4-4---11-11-11-11-11-11-11-11-11---9-9-9-9-9-9-9-9-9---
a--2-2-2-2-2-2-2-2----9--9--9--9--9--9--9--9--9---7-7-7-7-7-7-7-7-7---
e---------------------------------------------------------------------

Chorus: 2x - Dont hold me down this is where i belong....

e---------------------------------------------------------
d---------------------------------------------------------
b---------------4---------------4-------------------------
g--6-6-6-6-6-6--4--4-4-4-4-4-4--4--2-2-2-2-2-2-2----------
a--6-6-6-6-6-6--2--4-4-4-4-4-4--2--2-2-2-2-2-2-2----------
e--4-4-4-4-4-4-----2-2-2-2-2-2-----0-0-0-0-0-0-0-----------


Interlude ?Let?s try this one more......?
G|-----------2-----------2---|
D|------2------------2-------|
A|--0------------0-----------|

Intro
Verse
Chorus
Intro
Verse
Chorus
Interlude
Chorus
Verse

-----------------------------------------------------------------------------------------------------------------


5, What`s my age again
Capo 2

Intro 1: Clean
e|--------------------------------------}
B|-----13-------13-------13-------13----}
G|---13--13---13--13---13--13---13--13--}
D|-11-----------------------------------} x5
A|----------11--------------------------}
E|-------------------11-------13--------}
Inro 2: Clean
e|------------------------------------------------------|
B|-----13-------13-------13-----13-------13-------------|
G|---13--13---13--13---13--13-13--13---13--13-----------|
D|-11---------------------------------------------------| x1
A|----------11---------------------------------///////--|
E|-------------------11--------------9---------///////--|

Chorus 1: Distorted
e|--------------------}
B|--------------------}
G|----88--1010--6666--}
D|-6--88--1010--6666--} x3
A|-6--66--8-8---4444--}
E|-4------------------}
Chorus 2: Distorted
e|------------------------------------|
B|------------------------------------|
G|----88--1010101010101010--88888888--|
D|-6--88--1010101010101010--88888888--| x1
A|-6--66--8-8-8-8-8-8-8-8---66666666--|
E|-4----------------------------------|

Intro 1: Clean x1

Verse 1: Distorted PM
e|-----------------------------}
B|-----------------------------}
G|-6666--------8888--10101010--}
D|-6666--6666--8888--10101010--} x3
A|-4444--6666--6666--8-8-8-8---}
E|-------4444------------------}
Verse 2: Distorted PM
e|---------------------------------|
B|---------------------------------|
G|-6666--------88888888--66666666--|
D|-6666--6666--88888888--66666666--| x1
A|-4444--6666--66666666--44444444--|
E|-------4444----------------------|

Chorus 1: Distorted x3
Chorus 2: Distorted x1

Interlude: Clean
e|----------------------}----------------------------}--------------------------|
B|---13~~----13~~-------}----------------------------}--------------------------|
G|-----13~~----13~~-----}---------10h11p10h11p10-----}----------------13--------|
D|-11~~------------(x2)-}-11-11-11--------------(x4)-}---10~~----10-------(x8)--|
A|----------------------}----------------------------}-11~~----11--11-----------|
E|----------------------}----------------------------}--------------------------|

Chorus 1: Distorted x3
Chorus 2: Distorted x1
Chorus 1: Distorted x3
Chorus 2: Distorted x1
Chorus 1: Distorted x3
Chorus 2: Distorted x1

End: Distorted
e|-----------------|
B|-----------------|
G|-6~~~------------|
D|-6~~~-----6~~~---| x1
A|-4~~~-----6~~~---|
E|----------4~~~---|

6.

|------------------------------------ |----|
|------------------------------------ |----|
|------------------------------------ |----| Hold for four beats
|4xxxxxxx---------------------------- x5 and then |4---|
|2xxxxxxx-2xxxxxxx-4xxxxxxx-2xxxxxxx- |2---|
|---------0xxxxxxx-2xxxxxxx-0xxxxxxx- |----|

-----------------------------------------------------------------------------------------------------------------




7, Aliens Exist

Intro
e:--------------------------------
B:--------------------------------
G:---4-4-4-4-4-4-4-4-4-4-4-4--4~--
D:---4-4-4-4-4-4-4-4-4-4-4-4--x~--
A:---2-2-2-2-2-2-2-2-2-2-2-2--2~--
E:--------------------------------
p.m . . . . . . . . . . . .

e:----------
B:----------
G:----------
D:----------
A:----/x---- (Drag pick down string)
E:----------



Verse
e:------------------------------------------------------
B:------------------------------------------------------
G:-4-4-4-4-4-4------------------------------------------
D:-4-4-4-4-4-4--2-2-2-2-2--6-6-6-6-6-6--2-2-2-2-2------- x2
A:-2-2-2-2-2-2--2-2-2-2-2--6-6-6-6-6-6--2-2-2-2-2-------
E:--------------0-0-0-0-0--4-4-4-4-4-4--0-0-0-0-0-------


e:--------------------------------------------------------
B:--------------------------------------------------------
G:---4-4-4-4-4-4------------------------------------------
D:---4-4-4-4-4-4--4-4-4-4-4-4--6-6-6-6-6-6--2-2-2-2-2-2--- x2
A:---2-2-2-2-2-2--4-4-4-4-4-4--6-6-6-6-6-6--2-2-2-2-2-2---
E:----------------2-2-2-2-2-2--4-4-4-4-4-4--0-0-0-0-0-0---
p.m . . . . . . . . . . . . . . . . . . . . . . .

e:--------------------------------------------------------
B:--------------------------------------------------------
G:---4-4-4-4-4-4--6-6-6-6-6-6-----------------------------
D:---4-4-4-4-4-4--6-6-6-6-6-6--6-6-6-6-6-6--2-2-2-2-2-2--- x1
A:---2-2-2-2-2-2--4-4-4-4-4-4--6-6-6-6-6-6--2-2-2-2-2-2---
E:-----------------------------4-4-4-4-4-4--0-0-0-0-0-0---
p.m . . . . . . . . . . . . . . . . . . . . . . . .

e:--------------------------------------------------------
B:--------------------------------------------------------
G:---4-4-4-4-4-4------------------------------------------
D:---4-4-4-4-4-4--4-4-4-4-4-4--6-6-6-6-6-6--2------------- x1
A:---2-2-2-2-2-2--4-4-4-4-4-4--6-6-6-6-6-6--2-------------
E:----------------2-2-2-2-2-2--4-4-4-4-4-4--0-------------
p.m . . . . . . . . . . . . . . . . . .



Chorus
e:------------------------------------------------------
B:------------------------------------------------------
G:-4-4-4-4-4-4---------------4-4-4-4-4-4----------------
D:-4-4-4-4-4-4--4-4-4-4-4-4--4-4-4-4-4-4--4-4-4-4-4-4---
A:-2-2-2-2-2-2--4-4-4-4-4-4--2-2-2-2-2-2--4-4-4-4-4-4---
E:--------------2-2-2-2-2-2---------------2-2-2-2-2-2---


e:--------------------------------------------------------
B:--------------------------------------------------------
G:--------------------------------------------------------
D:---1-1---1-1---1-1---1-1-----2-2---2-2---2-2---2-2------ x2
A:-------2-----2-----2------2------2-----2-----2-----2----
E:--------------------------------------------------------
p.m . . . . . . . . . . . . . . . . . . . . . . . .

e:----------------------------------------
B:----------------------------------------
G:------------------4~--------------------
D:-4~------2~-------4~----4~------2~------
A:-4~------2~-------2~----4~------2~------
E:-2~------0~-------------2~------0~------



Verse
e:------------------------------------------------------
B:------------------------------------------------------
G:-4-4-4-4-4-4------------------------------------------
D:-4-4-4-4-4-4--2-2-2-2-2--6-6-6-6-6-6--2-2-2-2-2------- x2
A:-2-2-2-2-2-2--2-2-2-2-2--6-6-6-6-6-6--2-2-2-2-2-------
E:--------------0-0-0-0-0--4-4-4-4-4-4--0-0-0-0-0-------


e:--------------------------------------------------------
B:--------------------------------------------------------
G:---4-4-4-4-4-4------------------------------------------
D:---4-4-4-4-4-4--4-4-4-4-4-4--6-6-6-6-6-6--2-2-2-2-2-2--- x2
A:---2-2-2-2-2-2--4-4-4-4-4-4--6-6-6-6-6-6--2-2-2-2-2-2---
E:----------------2-2-2-2-2-2--4-4-4-4-4-4--0-0-0-0-0-0---
p.m . . . . . . . . . . . . . . . . . . . . . . .

e:--------------------------------------------------------
B:--------------------------------------------------------
G:---4-4-4-4-4-4--6-6-6-6-6-6-----------------------------
D:---4-4-4-4-4-4--6-6-6-6-6-6--6-6-6-6-6-6--2-2-2-2-2-2--- x1
A:---2-2-2-2-2-2--4-4-4-4-4-4--6-6-6-6-6-6--2-2-2-2-2-2---
E:-----------------------------4-4-4-4-4-4--0-0-0-0-0-0---
p.m . . . . . . . . . . . . . . . . . . . . . . . .

e:--------------------------------------------------------
B:--------------------------------------------------------
G:---4-4-4-4-4-4------------------------------------------
D:---4-4-4-4-4-4--4-4-4-4-4-4--6-6-6-6-6-6--2------------- x1
A:---2-2-2-2-2-2--4-4-4-4-4-4--6-6-6-6-6-6--2-------------
E:----------------2-2-2-2-2-2--4-4-4-4-4-4--0-------------
p.m . . . . . . . . . . . . . . . . . .



Chorus
e:------------------------------------------------------
B:------------------------------------------------------
G:-4-4-4-4-4-4---------------4-4-4-4-4-4----------------
D:-4-4-4-4-4-4--4-4-4-4-4-4--4-4-4-4-4-4--4-4-4-4-4-4---
A:-2-2-2-2-2-2--4-4-4-4-4-4--2-2-2-2-2-2--4-4-4-4-4-4---
E:--------------2-2-2-2-2-2---------------2-2-2-2-2-2---


e:--------------------------------------------------------
B:--------------------------------------------------------
G:--------------------------------------------------------
D:---1-1---1-1---1-1---1-1-----2-2---2-2---2-2---2-2------ x2
A:-------2-----2-----2------2------2-----2-----2-----2----
E:--------------------------------------------------------
p.m . . . . . . . . . . . . . . . . . . . . . . . .

e:----------------------------------------
B:----------------------------------------
G:------------------4~--------------------
D:-4~------2~-------4~----4~------2~------
A:-4~------2~-------2~----4~------2~------
E:-2~------0~-------------2~------0~------



Interlude
e:---------------------------------------------
B:---------------------------------------------
G:-4-4-4-4-4-4-4-4-4-4-4-4-4-4-4-4-4-4-4-4-4-4-
D:-x-x-x-x-x-x-x-x-x-x-x-x-x-x-x-x-x-x-x-x-x-x-
A:-2-2-2-2-2-2-2-2-2-2-2-2-2-2-2-2-2-2-2-2-2-2-
E:---------------------------------------------

e:---------------------------------------------------------
B:---------------------------------------------------------
G:--8-8-8-8-8-8--6-6-6-6-6-6-/-9-9-9-9-9-9--8-8-8-8-8-8--
D:--x-x-x-x-x-x---x-x-x-x-x-x---x-x-x-x-x-x---x-x-x-x-x-x--
A:--6-6-6-6-6-6--4-4-4-4-4-4-/-7-7-7-7-7-7--6-6-6-6-6-6--
E:---------------------------------------------------------



Verse
e:---------------------------------------------------------------
B:---------------------------------------------------------------
G:----------------------------------------------4-4-4-4--6-6-6-6-
D:-6-6-6-6-6-6-6--4-4-4-4-4-4-4--2-2-2-2-2-2-2--4-4-4-4--6-6-6-6- x2
A:-6-6-6-6-6-6-6--4-4-4-4-4-4-4--2-2-2-2-2-2-2--2-2-2-2--4-4-4-4-
E:-4-4-4-4-4-4-4--2-2-2-2-2-2-2--0-0-0-0-0-0-0-------------------


Chorus
e:------------------------------------------------------
B:------------------------------------------------------
G:-4-4-4-4-4-4---------------4-4-4-4-4-4----------------
D:-4-4-4-4-4-4--4-4-4-4-4-4--4-4-4-4-4-4--4-4-4-4-4-4---
A:-2-2-2-2-2-2--4-4-4-4-4-4--2-2-2-2-2-2--4-4-4-4-4-4---
E:--------------2-2-2-2-2-2---------------2-2-2-2-2-2---


e:--------------------------------------------------------
B:--------------------------------------------------------
G:--------------------------------------------------------
D:---1-1---1-1---1-1---1-1-----2-2---2-2---2-2---2-2------ x2
A:-------2-----2-----2------2------2-----2-----2-----2----
E:--------------------------------------------------------
p.m . . . . . . . . . . . . . . . . . . . . . . . .


Outro
e:------------------------------------
B:------------------------------------
G:-------------4~----------9~----4~---
D:-4~----2~----4~----4~----9~----4~---
A:-4~----2~----2~----4~----7~----2~---
E:-2~----0~----------2~---------------

8. Going Away To College

-----------------------------------------------------------------------------------------------------------------

Capo 2

INTRO
e|---------------------------------------------------------------------------|
B|---------------------------------------------------------------------------|
G|--6-6--6-6-6---6---6-6--6-6-6-6---6-6--6-6-6---6---6-6--6-6-6-6------------|
D|--7-7--7-7-7---9---9-9--9-9-9-7---7-7--7-7-7---9---9-9--9-9-9-9------------|
A|--0-0--0-0-0---0---0-0--0-0-0-0---0-0--0-0-0---0---0-0--0-0-0-0------------|
E|--0-0--0-0-0---0---0-0--0-0-0-0---0-0--0-0-0---0---0-0--0-0-0-0------------|

e|---------------------------------------------------------------------------|
B|---------------------------------------------------------------------------|
G|--6-6--6-6-6---4---4-4--4-4-4-6---6-6--6-6-6---4---4-4--4-4-4-4------------|
D|--0-0--0-0-0---0---0-0--0-0-0-0---0-0--0-0-0---0---0-0--0-0-0-0------------|
A|--0-0--0-0-0---0---0-0--0-0-0-0---0-0--0-0-0---0---0-0--0-0-0-0------------|
E|---------------------------------------------------------------------------|

e|---------------------------------------------------------------------------|
B|---------------------------------------------------------------------------|
G|--6-6--6-6-6---6---6-6--6-6-6-6---6-6--6-6-6---6---6-6--6-6-6-6------------|
D|--7-7--7-7-7---9---9-9--9-9-9-7---7-7--7-7-7---9---9-9--9-9-9-9------------|
A|--0-0--0-0-0---0---0-0--0-0-0-0---0-0--0-0-0---0---0-0--0-0-0-0------------|
E|--0-0--0-0-0---0---0-0--0-0-0-0---0-0--0-0-0---0---0-0--0-0-0-0------------|

e|---------------------------------------------------------------------------|
B|---------------------------------------------------------------------------|
G|--6-6--6-6-6---4---4-4--4-4-4-6---6-6--6-6-6---4---------------------------|
D|--0-0--0-0-0---0---0-0--0-0-0-0---0-0--0-0-0---0---------------------------|
A|--0-0--0-0-0---0---0-0--0-0-0-0---0-0--0-0-0---0---------------------------|
E|---------------------------------------------------------------------------|


INTERLUDE
e|---------------------------------------------------------------------------|
B|---------------------------------------------------------------------------|
G|-------------6-------------6-------------6---------------------------------|
D|------7-------------7-------------7-------------9------9-------------------|
A|------------------------------5-5----5-5----7-7----7-7---------------------|
E|--5-5----5-5----5-5----5-5-------------------------------------------------|


VERSE 1
e|---------------------------------------------------------------------------|
B|---------------------------------------------------------------------------|
G|---------------------------------------------------------------------------|
D|--7------------------------------------------------------------------------|
A|--7------------------------------------------------------------------------|
E|--5------------------------------------------------------------------------|

e|---------------------------------------------------------------------------|
B|---------------------------------------------------------------------------|
G|----------------7-7-7-7-7-7-7-7--9-9-9-9-9-9-9-9---------------------------|
D|--7---7--7---7--7-7-7-7-7-7-7-7--9-9-9-9-9-9-9-9---------------------------|
A|--7---7--7---7--5-5-5-5-5-5-5-5--7-7-7-7-7-7-7-7---------------------------|
E|--5---5--5---5-------------------------------------------------------------|


(Repeat INTERLUDE)


VERSE 2
e|---------------------------------------------------------------------------|
B|---------------------------------------------------------------------------|
G|---------------------------------------------------------------------------|
D|--7------------------------------------------------------------------------|
A|--7------------------------------------------------------------------------|
E|--5------------------------------------------------------------------------|

e|---------------------------------------------------------------------------|
B|---------------------------------------------------------------------------|
G|----------------7-7-7-7-7-7-7-7--9-9-9-9-9-9-9-9---------------------------|
D|--7---7--7---7--7-7-7-7-7-7-7-7--9-9-9-9-9-9-9-9---------------------------|
A|--7---7--7---7--5-5-5-5-5-5-5-5--7-7-7-7-7-7-7-7---------------------------|
E|--5---5--5---5-------------------------------------------------------------|


CHORUS
e|---------------------------------------------------------------------------|
B|---------------------------------------------------------------------------|
G|--6--6-6-6-6-6-6--7--7-7-7-7-7-7-------------------------------------------|
D|--x--x-x-x-x-x-x--x--x-x-x-x-x-x--7--7-7-7-7-7-7--2--2-2-2-2-2-2-----------|
A|--4--4-4-4-4-4-4--5--5-5-5-5-5-5--7--7-7-7-7-7-7--2--2-2-2-2-2-2-----------|
E|----------------------------------5--5-5-5-5-5-5--0--0-0-0-0-0-0-----------|


(Repeat INTERLUDE)


VERSE 3
e|---------------------------------------------------------------------------|
B|---------------------------------------------------------------------------|
G|------6------6------6------6------6------6------7--------------------------|
D|-------------------------------------------------------7-------------------|
A|------------------------------5-5----5-5----7-7----7-7---------------------|
E|--5-5----5-5----5-5----5-5-------------------------------------------------|

e|---------------------------------------------------------------------------|
B|---------------------------------------------------------------------------|
G|------6------6------6------6------6------6------7--------------------------|
D|-------------------------------------------------------7-------------------|
A|------------------------------5-5----5-5----7-7----7-7---------------------|
E|--5-5----5-5----5-5----5-5-------------------------------------------------|

e|---------------------------------------------------------------------------|
B|---------------------------------------------------------------------------|
G|----------------7-7-7-7-7-7-7-7--9-9-9-9-9-9-9-9---------------------------|
D|--7---7--7---7--7-7-7-7-7-7-7-7--9-9-9-9-9-9-9-9---------------------------|
A|--7---7--7---7--5-5-5-5-5-5-5-5--7-7-7-7-7-7-7-7---------------------------|
E|--5---5--5---5-------------------------------------------------------------|


(Repeat CHORUS)

(Repeat INTRO)

(Repeat CHORUS)

-----------------------------------------------------------------------------------------------------------------

9.All The Small Things

Intro w/distortion
e|------|
B|------|
G|------|
D|-5-3--|
A|-5-3--|
E|-3-1--|

e|-----------------------------------------------|
B|-----------------------------------------------|
G|-55555555-1010101010101010---------------------|
D|-55555555-1010101010101010-555555555------333--| x2
A|-33333333-8-8-8-8-8-8-8-8--555555555-7777-333--|
E|---------------------------333333333-5555-111--|
....

Verse PM w/distortion
e|--------------------------------------|
B|--------------------------------------|
G|--------------------------------------|
D|-55555555-----------------------------| x4
A|-33333333-55555555-33333333-55555555--|
E|----------33333333-11111111-33333333--|

e|-----|
B|-----|
G|-5~--|
D|-5~--|
A|-3~--|
E|-----|

Chorus w/distortion
e|-------------------------------------|
B|-------------------------------------|
G|-5555555555555555--------------------|
D|-5555555555555555-55555555-33333333--| x2
A|-3333333333333333-55555555-33333333--|
E|------------------33333333-11111111--|

Intro riff 2 w/distortion
e|-------------------------------------------|
B|-------------------------------------------|
G|-55555555-10101010-9999-77777777-----------|
D|-55555555-10101010-9999-77777777-----------| x2
A|-33333333-8-8-8-8--7777-55555555-7777-333--|
E|---------------------------------5555-111--|
....

Verse PM w/distortion
e|--------------------------------------|
B|--------------------------------------|
G|--------------------------------------|
D|-55555555-----------------------------| x2
A|-33333333-55555555-33333333-55555555--|
E|----------33333333-11111111-33333333--|

e|-----|
B|-----|
G|-5~--|
D|-5~--|
A|-3~--|
E|-----|


Chorus w/distortion
e|-------------------------------------|
B|-------------------------------------|
G|-5555555555555555--------------------|
D|-5555555555555555-55555555-33333333--| x2
A|-3333333333333333-55555555-33333333--|
E|------------------33333333-11111111--|

Interlude 1 w/distortion
e|------------|
B|------------|
G|---------5--|
D|-3~--5~--5--|
A|-3~--5~--3--|
E|-1~--3~-----|

Interlude 2 PM clean
e|-------------------|
B|-------------------|
G|-5-5-5-5-4-4-7-7---|
D|--5-5-5-5-5-5-5-5--| x4
A|-------------------|
E|-------------------|

PM
e|-------------------------------------|
B|-------------------------------------|
G|-------------------------------------|
D|-------------------------------------|
A|-3333333333333333-55555555-77777777--|
E|-1111111111111111-33333333-55555555--|

Chorus w/distortion
e|-------------------------------------|
B|-------------------------------------|
G|-5555555555555555--------------------|
D|-5555555555555555-55555555-33333333--| x3
A|-3333333333333333-55555555-33333333--|
E|------------------33333333-11111111--|

Chorus w/distortion
e|---------------------------------------------|
B|---------------------------------------------|
G|-5555555555555555----------------------------|
D|-5555555555555555-55555555-------------------|
A|-3333333333333333-55555555-3333333333333333--|
E|------------------33333333-1111111111111111--|
................

Outro
e|-----|
B|-----|
G|-5~--|
D|-5~--|
A|-3~--|
E|-----|

-----------------------------------------------------------------------------------------------------------------

10. Untitled

Intro
e:-----------------------------------------------------------
B:-----------------------------------------------------------
G:-----------------------------------------------------------
D:---444444-444444------------------------------------------- x6
A:---222222-222222-222222-444444-----------------------------
E:-----------------000000-222222-----------------------------
p.m ...... ...... ...... ......

Verse
e:---------------------------------------------
B:---------------------------------------------
G:--8/9--94--4/6--68--8/9--94--4/66--9------
D:--x-x--x-x--x-x--x-x--x-x--x-x--x-xx--9------ x1
A:--6/7--72--2/4--46--6/7--72--2/44--7------
E:---------------------------------------------


Verse / Chorus Intro
e:---------------------------------------
B:---------------------------------------
G:--44444-----------------99/88----------
D:--44444-66666-44444-----99/88---------- x2
A:--22222-66666-44444-----77/66----------
E:--------44444-22222--------------------


1st Verse
e:-------------------------------------------------------
B:-------------------------------------------------------
G:--4444444444444444-------------------------------------
D:--4444444444444444-22222222-44444444------------------- X4
A:--2222222222222222-22222222-44444444-------------------
E:-------------------00000000-22222222-------------------

Verse / Chorus
e:---------------------------------------
B:---------------------------------------
G:--------------------44444444-----------
D:--66666666-22222222-44444444-44444444-- x1
A:--66666666-22222222-22222222-44444444--
E:--44444444-00000000----------22222222--

Chorus
e:---------------------------------------
B:---------------------------------------
G:--44444444-----------------------------
D:--44444444-4444-2222------------------- x1
A:--22222222-4444-2222-------------------
E:-----------2222-0000-------------------

Solo
E:---------------------------------------
B:---------------------------------------
G:---------------------------------------
D:----1-4~--2-1----1-4~---2-1------------ x4
A:--2------------------------------------
E:--------2------0------2----------------
p.m . . . . . . . . . .

2nd Verse
e:-----------------------------------------------------------------------------
B:-----------------------------------------------------------------------------
G:----------------------------------99-----------------------------------------
D:-99999999999999999999999999999999-99----------------------------------------- x1
A:-xxxxxxxxxxxxxxxxxxxxxxxxxxxxxxxx-77-----------------------------------------
E:-77777777777777777777777777777777--------------------------------------------


Verse / Chorus
e:------------------------------------------------------------
B:------------------------------------------------------------
G:--------------------44444444--------------------------------
D:--66666666-22222222-44444444-44444444-66666666-22222222----- x1
A:--66666666-22222222-22222222-44444444-66666666-22222222-----
E:--44444444-00000000----------22222222-44444444-00000000-----

Outro
e:-----------------------------------------------------------------------------
B:-----------------------------------------------------------------------------
G:--44444444-/9-8-6-4444-6666--9-8-6-444444-/9-8-6-44-66-88-6-44444444-/9-4-6--
D:--xxxxxxxx--x-x-x-xxxx-xxxx--x-x-x-xxxxxx--x-x-x-xx-xx-xx-x-xxxxxxxx--x-x-x--
A:--22222222-/7-6-4-2222-4444--7-6-4-222222-/7-6-4-22-44-66-4-22222222-/7-6-4--
E:-----------------------------------------------------------------------------

Outro Continued
e:-------------------------------------------
B:-------------------------------------------
G:-4444-6666-/9-8-6-44444444-/9-8-6-4-6-444--
D:-xxxx-xxxx--x-x-x-xxxxxxxx--x-x-x-x-x-xxx-- x1
A:-2222-4444-/7-6-4-22222222-/7-6-4-2-4-222--
E:-------------------------------------------


End on:
e:-------
B:-------
G:--4~~--
D:--4~~--
A:--2~~--
E:-------

-----------------------------------------------------------------------------------------------------------------


11. Carousel

|-----------------------------------------------------------------------------
|-----------------------------------------------------------------------------
|-----------------------------------------------------------------------------
|---445754-------------------------------445754-------------------------------
|--5------5--445754---77911979---5--5-5-5------5--445754---77911979-55555555--
|-----------5------5-7---------33-33-3-----------5------5-7---------33333333--

|----------------------------------------------
|----------------------------------------------
|----------------------------------------------
|--44-44-4-4-----------------------------------
|--55-55-5-5-77-77-7-7-99-99-9-9-55-55-5-5--X4-
|------------55-55-5-5-77-77-7-7-33-33-3-3-----

This is what the guitar really plays with the above riff (clean)
|-----------------------------------------------------------
|-----------------------------------------------------------
|--1111-1111-11-11-99-99-9-9-1111-1111-11-11-77-77-7-7------
|--1212-1212-12-12-77-77-7-7--9-9--9-9--9--9-55-55-5-5---X4-
|-----------------------------------------------------------
|-----------------------------------------------------------
pm..................................................

Distorted
|---------------------------------------
|---------------------------------------
|--777-777------------------------------
|--777-777-777-777-999-999-555-555------
|--555-555-777-777-999-999-555-555---X2-
|----------555-555-777-777-333-333------

|------------------------------------------------------
|------------------------------------------------------
|------------------------------------------------------
|------------------------------------------------------
|--45------4555555445577554p5------4-4445-55-7545754---
|------------------------------------------------------

Bridge:
|-----------------------------------------------------------------------------------
|-----------------------------------------------------------------------------------
|-----------------------------------------------------------------------------------
|--4444445-2-222222-44444h5p4-77-5-4-2-4444445-2-2222h4-0-00-50-45-00-20-4h5-4p2-0--
|-----------------------------------------------------------------------------------
|-----------------------------------------------------------------------------------

Verse:
|---------------------------------------------------
|---------------------------------------------------
|--77777777-------------------1212121212121212------
|--77777777-77777777-99999999-1212121212121212------
|--55555555-77777777-99999999-1010101010101010---X2-
|-----------55555555-77777777-----------------------

|---------------------------------------------------
|---------------------------------------------------
|--11----11----11--9--9--9-11--11--11-7--7--7-------
|----1212--1212--12-77-77-7--99--99--9-55-55-5---X2-
|---------------------------------------------------
|---------------------------------------------------

Chorus:
|-------------------------------------------
|-------------------------------------------
|--77777777-99999999------------------------
|--77777777-99999999-77777777-55555555------
|--55555555-77777777-77777777-55555555---X4-
|--------------------55555555-33333333------

Bridge

Verse 2:
|-------------------------------------------------------
|-------------------------------------------------------
|--77777777-------------------1212121212121212-------7--
|--77777777-77777777-99999999-1212121212121212-------7--
|--55555555-77777777-99999999-1010101010101010---X2--5--
|-----------55555555-77777777---------------------------

Interlude:
|----------------------------------------
|----------------------------------------
|----------------------------------------
|---45754--------------------------------
|--5-----5--45754---67976---23532-----X4-
|----------5-----5-7-----7-3-----3-------

Chorus

End:
|-----
|-----
|--7--
|--7--
|--5--
|-----

-----------------------------------------------------------------------------------------------------------------

12. The Country Song

e---------------------------------
B---------------------------------
G---------------------------------
D---2-------2-------2------------- X4
A-3--3--0-3--3--0-3--3--0-3---0-2-
E-----3-------3-------3-----3-----

e---------------------------------
B---------------------------------
G---------------------------------
D---2-----2-----2-----------------X2
A-3---0-3---0-3---0-3---0-2-------
E----3-----3-----3----3-----------

e---------------------------------
B---------------------------------
G---------------------------------
D---------------------------------
A------00000000------------22222--
E---------------------------------


-----------------------------------------------------------------------------------------------------------------
13. Dammit

Intro

------------------------------------------------------------------------------
------------------------------------------------------------------------------
------------------------------------------------------------------------------
------0-0-2-------0-0-2--------0-0-2--------2-2-0-----------------------------
-3-3---------------------0-0--------------------------------------------------
------------3-3-----------------------1-1-------------------------------------
Verse Part 1 Verse Part 2

--------------------------------|---------------------------------------------
--------------------------------|---------------------------------------------
--5-5555------------------------|-555555--------------------------------------
--3-3333--5-5555--7-7777--3-3333|-555555-555555--777777--333333---------------
--3-3333--3-3333--7-7777--3-3333|-333333-555555--777777--333333---------------
----------3-3333--5-5555--1-3333|--------333333--555555--111111---------------
xxxx xxxx xxxx xxxx

Chorus
------------------------------------------------------------------------------
------------------------------------------------------------------------------
-55555555---------------------------------------------------------------------
-55555555-55555555-77777777-33333333------------------------------------------
-33333333-55555555-77777777-33333333------------------------------------------
----------33333333-55555555-11111111------------------------------------------


-0-----0---0----0---0---------------------------------------------------------
--1---3--1--1--3-1-3-1--------------------------------------------------------
---0---------0----------------------------------------------------------------
------------------------------------------------------------------------------
------------------------------------------------------------------------------
------------------------------------------------------------------------------
Solo


Song Order

Intro x4
Verse Part 1 x2
Verse Part 2 x2
Intro x2
Verse Part 1 x2
Verse Part 2 x2
Chorus x2
Intro x2
Verse Part 1 x2
Verse Part 2 x2
Chorus x2
Solo x2
Intro x4



-----------------------------------------------------------------------------------------------------------------


Get this song at amazon.com      Ebay     Ringtones Ringtones  


Learn to play: Songwriting, Piano, Harmonica, Guitar
More Blink 182 lyrics available at Muzikum

Related Blink 182 Tabs

All The Small Things Live Solo tabs
Fentoozler tabs
Sometimes tabs
Transvestite tabs
Emo tabs
Adams Song Live2 tabs
I Miss You Live tabs
78 People tabs
Adam Song tabs
Does My Breath Smell tabs
Im Sorry tabs
Online Songs tabs
Carousel tabs
Angellica & Me tabs
Alone Intro tabs
Dammit(done Right) tabs
Dammit (live An Normal 100%) tabs
Life Is So Boring tabs
Anthem tabs
First Date (live) Guitar Tab tabs


Guitar Tabs









All tabs are property and copyright of their owners. All tabs provided for educational purposes only. Privacy Policy, DMCA