Blink 182

Asthenia-live Tabs



More from Blink 182

Blink 182 Tabs
Blink 182 Chords
Blink 182 Bass
Blink 182 Lyrics



Blink 182
Asthenia
Words and Music by Travis Barker,Tom Delonge, and Mark Hoppus

I think this is one of the best songs on the new album so i decided to tab it..

Intro(The beginning of the Intro is a NASA Transmission recording and analog sythesizer..Then
it comes in with drums, here is the guitar intro

Gtr. 1 w/ Distortion---RIFF A
----------------------------------------------------------------------------------
-----------7~----------------------------------------7~---------------------------
--7~-----------------------------7~-------6~---7~--------------------7~--------6~-
------0~-----------------------------0~-----------0~---------------------0~-------
----------------------------------------------------------------------------------
----------------------------------------------------------------------------------


Verse

Gtr. 1 Clean
---
---
-7-
---
---
--- Play that at the start of every measure for the verse

Gtr. 2 w/ Distortion and flanger--RHYTHM FIGURE 1
----------------------------------------------------------------------
----------------------------------------------------------------------
--7-7-7-7-7-7-7-7--7-7-7-7-7-7-7--7-7-7-7-7-7-7-7--6-6-6-6-6-6-6-6----
--0-0-0-0-0-0-0-0--0-0-0-0-0-0-0--0-0-0-0-0-0-0-0--X-X-X-X-X-X-X-X----
--5-5-5-5-5-5-5-5--4-4-4-4-4-4-4--X-X-X-X-X-X-X-X--4-4-4-4-4-4-4-4----
----------------------------------7-7-7-7-7-7-7-7--5-5-5-5-5-5-5-5----

Interlude 1

Gtr. 3 w/ Distortion--RIFF B
------------------------------------------------------------------------------------------------------
------------------------------------------------------------------------------------------------------
-7-7-6-6-7-7-9-9--7-7-6-6-7-7-9-9--7-7-6-6-7-7-9-9--7-7-6-6-7-7-9-9--7-7-6-6-7-7-9-9--7-7-6-6---------
-X-X-X-X-X-X-X-X--X-X-X-X-X-X-X-X--X-X-X-X-X-X-X-X--X-X-X-X-X-X-X-X--X-X-X-X-X-X-X-X--X-X-X-X---------
-5-5-4-4-5-5-7-7--5-5-4-4-5-5-7-7--5-5-4-4-5-5-7-7--5-5-4-4-5-5-7-7--5-5-4-4-5-5-7-7--5-5-4-4--0-0-0-0
-----------------------------------------------------------------------------------------------0-0-0-0
PM-------|

Gtr 4 w/ Distortion--RHYTHM FIGURE 2
-------------------------------------------------------------------------------------------------------
-------------------------------------------------------------------------------------------------------
7-7-7-7-7-7-7-7--7-7-7-7-7-7-7-------------------------------------------------------------------------
7-7-7-7-7-7-7-7--7-7-7-7-7-7-7-------------------------------------------------------------------------
5-5-5-5-5-5-5-5--5-5-5-5-5-5-5--0--5-5-5-5-5-5-5-5--5-5-5-5-5-5-5-5--5-5-5-5-5-5-5-5--5-5-5-5-7-7-7--0-
--------------------------------0--2-2-2-2-2-2-2-2--2-2-2-2-2-2-2-2--3-3-3-3-3-3-3-3--3-3-3-3-5-5-5--0-
PM---------|

Chorus

Gtr. 4 w/ Distortion----RIFF C
--------------------------------------------------------------------------------------------------------------
--------------------------------------------------------------------------------------------------------------
--------------------------------------------------------------------------------------------------------------
-----0--0-------0--0-------0---------0--0------0--0------0---------0--0-------0--0-------0----------0--0-----0
-----5--5-------5--5-------5---------5--5------4--4------4---------5--5-------5--5-------5----------5--5-----4
2-2--------3-3--------3-3----0--5-5--------5-5-------5-5----0--2-2-------3-3--------3-3-----0--5-5-------5-5-0

Interlude 2---WITH RIFF A
---
---
-7-
-0-
---
--- Repeat that with a flanger effect and slowly rollback the volume

Interlude 3

Gtr. 5 w/ Distortion--Riff E
-------------------------
-------------------------
-7-7-7-7-7-7-7-7--7-7-7-7
-X-X-X-X-X-X-X-X--X-X-X-X
-5-5-5-5-5-5-5-5--5-5-5-5
-------------------------

Gtr. 6 w/ Distortion.. Play this after Riff E, not with it
---------------------------
---------------------------
7-7-7-7-7----7-7-7--7-7-7-7
X-X-X-X-X----X-X-X--X-X-X-X
5-5-5-5-5b---5-5-5--5-5-5-5
---------------------------

Gtr.3 w/ Distortion Play this after the Gtr.6 part of the interlude
-------------------------------------
-------------------------------------
--11-11-11-11-11-11-11-11--11-9-9-9--
---X--X--X--X--X--X--X--X---X-X-X-X--
---9--9--9--9--9--9--9--9---9-7-7-7--
-------------------------------------

Gtr. 5 w/ Distortion...PLay this WITH Gtr. 3
------------------------------------------
------------------------------------------
-7-7-7-7-7-7-7-7--7-7-7-7-0---------------
-X-X-X-X-X-X-X-X--X-X-X-X-X---------------
-5-5-5-5-5-5-5-5--5-5-5-5-5b--5b--5b--5b--
------------------------------------------

Gtr. 6 w/ Distortion... Play thats after the Gtr. 3 and 5 part
---------------------------
---------------------------
-7-7-7-7----7-7-7--7-7-7-7-
-X-X-X-X-5b-X-X-X--X-X-X-X-
-5-5-5-5----5-5-5--5-5-5-5-
---------------------------

Gtr. 5 & 6 w/ Distortion...Play after the Gtr. 6 part
-----------------------------------------------------------------------------------------------------
-----------------------------------------------------------------------------------------------------
-----------------------------------------------------------------------------------------------------
------------------------------------------------------4-4-4-4----------------------------------------
---5-5-5-5/9-9-9-9-10-10-10-107-7-7-7-7-7-7----------5-5-5-5/9-9-9-9-10-10-10-107-7-7-7-7-7-7------
---0-0-0-0-----------------------------------0-0-0-0--------------------------------------------0-0-0
PM-------| PM----------------| PM-----|

-------------------------------------------------------------------------------------------------------
-------------------------------------------------------------------------------------------------------
-------------------------------------------------------------------------------------------------------
----4-4-4-4--------------------------------------------4-4-4-4-----------------------------------------
----5-5-5-5/9-9-9-9-10-10-10-107-7-7-7-7-7-7----------5-5-5-5/9-9-9-9-10-10-10-107-7-7-7-7-7-7-------
--0-------------------------------------------0-0-0-0--------------------------------------------0-0-0
PM-------| PM----------------| PM------|

Gtr. 5 & 6 w/ Distortion --- this is the end of the Interlude
---
---
-0-
-0-
-0- Do that and rollback the volume slowly also give it a flanger effect with the whammy
bar

Outro..On the outro Gtr. 3 plays Riff B 1 and 1/3 times and Gtr. 4 plays Rhythm Figure 2
1 and 1/3 times and after that Gtr. 3 plays this

----------------------------------------
----------------------------------------
--7-7-6-6-7-7-9-9--7-7-6-6-7-7-9-X--2~--
--X-X-X-X-X-X-X-X--X-X-X-X-X-X-X-X--0~--
--5-5-4-4-5-5-7-7--5-5-4-4-5-5-7-X--0~--
------------------------------------0~--

Gtr. 4 plays this with Gtr. 3
----------------------------------------
----------------------------------------
----------------------------------------
----------------------------------------
--5-5-5-5-5-5-5-5--5-5-5-5-5-5-5-5---5~-
--2-2-2-2-2-2-2-2--2-2-2-2-2-2-2-0---3~-
Ok well thats it. I know it's Kinda confusing but if you read the top captions, then you'll
be fine

Order:
Intro
Verse 1
Verse 2
Interlude 1
Chorus
Interlude 2
Verse 3
Interlude 1
Chorus
Interlude 3
Chorus
Outro

OK WELL I REALLY HOPE I DIDN'T DO ALL THAT FOR NOTHING....I'M POSITIVE THAT THAT IS AT
LEAST 95% RIGHT BUT SHOULD BE 100%..ANY QUESTIONS OR COMMENTS E-MAIL ME AT NIRVANAPUNK747@YAHOO.COM...


Get this song at amazon.com      Ebay     Ringtones Ringtones  


Learn to play: Songwriting, Piano, Harmonica, Guitar
More Blink 182 lyrics available at Muzikum

Related Blink 182 Tabs

Dysentery Gary Intro tabs
Not Now tabs
Shut Up tabs
What Went Wrong Clarinet Solo tabs
The Country Song Solo tabs
Aliens Exist (live) tabs
Waggy tabs
Marks Boyfriend tabs
Rock Show (live) tabs
Carousel Intro tabs
21 Days3 tabs
B J tabs
Peggy Sue Live tabs
Heres Your Letter tabs
First Date (live) Guitar Tab tabs
Don\'t Leave Me tabs
Pathetic Live tabs
Peggy Sue Live Solo tabs
Stay Together For The Kids tabs
Secret Track tabs


Guitar Tabs









All tabs are property and copyright of their owners. All tabs provided for educational purposes only. Privacy Policy, DMCA