Blink 182

Asthenia Guitar Tab Tabs



More from Blink 182

Blink 182 Tabs
Blink 182 Chords
Blink 182 Bass
Blink 182 Lyrics




Intro
|---------------------------------------------------------------------|
|-----7~------------------7~------------------------------------------|
|-7-------------7---6-7-------------7---6-7---------------------------|
|---0-------------0-----0-------------0-------------------------------|
|---------------------------------------------------------------------|
|---------------------------------------------------------------------|

Verse 4x
|---------------------------------------------------------------------|
|---------------------------------------------------------------------|
|-7-7-7-7-7-7-7-7-7-7-7-7-7-7-7-7-7-4-4-4-4-4-4-4-4-7-7-7-7-7-7-7-7---|
|-x-x-x-x-x-x-x-x-x-x-x-x-x-x-x-x-x-x-x-x-x-x-x-x-x-x-x-x-x-x-x-x-x---|
|-5-5-5-5-5-5-5-5-5-4-4-4-4-4-4-4-4-2-2-2-2-2-2-2-2-4-4-4-4-4-4-4-4---|
|---------------------------------------------------------------------|

Pre Chorus 2x

|---------------------------------------------------------------------|
|---------------------------------------------------------------------|
|-7-7-6-7-9----7-6----------------------------------------------------|
|-x-x-x-x-x-5x-x-x----------------------------------------------------|
|-5-5-4-5-7----5-4----------------------------------------------------|
|------------------2-2-2-2--------------------------------------------|
PM.......

Chorus 2x

|---------------------------------------------------------------------|
|---------------------------------------------------------------------|
|---------------------------------------------------------------------|
|---------------------------------------------------------------------|
|-----5-5-----5-5-----5-----5-5-----4-4-----4-------------------------|
|-2-2-----3-3-----3-3---5-5-----5-5-----5-5---------------------------|

Intro

|---------------------------------------------------------------------|
|-----7~------------------7~------------------------------------------|
|-7-------------7---6-7-------------7---6-7---------------------------|
|---0-------------0-----0-------------0-------------------------------|
|---------------------------------------------------------------------|
|---------------------------------------------------------------------|


Verse 2x
|---------------------------------------------------------------------|
|---------------------------------------------------------------------|
|-7-7-7-7-7-7-7-7-7-7-7-7-7-7-7-7-7-4-4-4-4-4-4-4-4-7-7-7-7-7-7-7-7---|
|-x-x-x-x-x-x-x-x-x-x-x-x-x-x-x-x-x-x-x-x-x-x-x-x-x-x-x-x-x-x-x-x-x---|
|-5-5-5-5-5-5-5-5-5-4-4-4-4-4-4-4-4-2-2-2-2-2-2-2-2-4-4-4-4-4-4-4-4---|
|---------------------------------------------------------------------|

Pre Chorus 2x

|---------------------------------------------------------------------|
|---------------------------------------------------------------------|
|-7-7-6-7-9----7-6----------------------------------------------------|
|-x-x-x-x-x-5x-x-x----------------------------------------------------|
|-5-5-4-5-7----5-4----------------------------------------------------|
|------------------2-2-2-2--------------------------------------------|
PM.......

Chorus 2x

|---------------------------------------------------------------------|
|---------------------------------------------------------------------|
|---------------------------------------------------------------------|
|---------------------------------------------------------------------|
|-----5-5-----5-5-----5-----5-5-----4-4-----4-------------------------|
|-2-2-----3-3-----3-3---5-5-----5-5-----5-5---------------------------|

Bridge

|---------------------------------------------------------------------|
|---------------------------------------------------------------------|
|-7-----------7----------11-----9----------7--------------------------|
|-x-14x-------x-14-------x10x--x-4x-------x-14x----------------------|
|-5-----------5----------9------7----------5--------------------------|
|-------pause------pause-------------pause----------------------------|

|---------------------------------------------------------------------|
|---------------------------------------------------------------------|
|---------------------------------------------------------------------|
|-----------4-4-4-4-5-5-5-5-2-2-2-2-2-2-2-2-2-2-----------------------|
|-5-5-5-5-5-----------------------------------------------------------|
|---------------------------------------------------------------------|
PM.........

|---------------------------------------------------------------------|
|---------------------------------------------------------------------|
|---------------------------------------------------------------------|
|-----------------4-4-4-4-5-5-5-5-2-2-2-2-2-2-2-2-2-2-----------------|
|-5-5-5-5-------------------------------------------------------------|
|---------2-2-2-2-----------------------------------------------------|
PM...............

|---------------------------------------------------------------------|
|---------------------------------------------------------------------|
|---------------------------------------------------------------------|
|-----------------4-4-4-4-5-5-5-5-2-2-2-2-2-2-2-2-2-2-----------------|
|-5-5-5-5-9-9-9-9-----------------------------------------------------|
|---------------------------------------------------------------------|
PM...............

|---------------------------------------------------------------------|
|---------------------------------------------------------------------|
|---------------------------------------------------------------------|
|-----------------4-4-4-4-5-5-5-5-2-2-2-2-2-2-2-2-2-2--------7~-------|
|-5-5-5-5---------------------------------------------5-5--5-5~-------|
|---------3-3-3-3-----------------------------------------------------|
PM............... PM......

Chorus 4x

|---------------------------------------------------------------------|
|---------------------------------------------------------------------|
|---------------------------------------------------------------------|
|---------------------------------------------------------------------|
|-----5-5-----5-5-----5-----5-5-----4-4-----4-------------------------|
|-2-2-----3-3-----3-3---5-5-----5-5-----5-5---------------------------|

Pre Chorus

|---------------------------------------------------------------------|
|---------------------------------------------------------------------|
|-7-7-6-7-9----7-6---------7-7-6-7-9-----------7----------------------|
|-x-x-x-x-x-5x-x-x---------x-x-x-x-x-5x--------x----------------------|
|-5-5-4-5-7----5-4---------5-5-4-5-7-----------5----------------------|
|------------------2-2-2-2-------------end on------------------------|
PM.......



Get this song at amazon.com      Ebay     Ringtones Ringtones  


Learn to play: Songwriting, Piano, Harmonica, Guitar
More Blink 182 lyrics available at Muzikum

Related Blink 182 Tabs

Phantom Of The Opera tabs
Alone Intro tabs
Dicklips tabs
Anthem Intro tabs
Jono tabs
Just About Done tabs
Reckless Abandon Solo tabs
Dammit Interlude tabs
Adams Song tabs
Dammit (live An Normal 100%) tabs
Give Me One Good Reason tabs
Action tabs
21 Days Intro tabs
What\'s My Age Again tabs
Pathetic Intro tabs
M&ms tabs
Lucky tabs
Rich Lips Live Intro tabs
I Know A Guy tabs
Adams Song Intro2 tabs


Guitar Tabs









All tabs are property and copyright of their owners. All tabs provided for educational purposes only. Privacy Policy, DMCA