Blink 182

Anthem Tabs



More from Blink 182

Blink 182 Tabs
Blink 182 Chords
Blink 182 Bass
Blink 182 Lyrics

100% correct

INTRO:
e----------------------------------------------------------------------------------------
B----------------------------------------------------------------------------------------
G--4-4-4-4-4---4-4-4-4-4---8-8-8-8-8---8-8-8-8-8---9-9-9-9-9---6-6-6-6-6---9-9-9-9-9-----
D--x-x-x-x-x---x-x-x-x-x---x-x-x-x-x---x-x-x-x-x---x-x-x-x-x---x-x-x-x-x---x-x-x-x-x-----
A--2-2-2-2-2---2-2-2-2-2---6-6-6-6-6---6-6-6-6-6---7-7-7-7-7---4-4-4-4-4---7-7-7-7-7-----
E----------------------------------------------------------------------------------------

e----------------------------------------------------------------------------------------
B----------------------------------------------------------------------------------------
G--6-6-6-6-6-----------------------------------------------------------------------------
D--x-x-x-x-x-----------------------------------------------------------------------------
A--4-4-4-4-4-----------------------------------------------------------------------------
E----------------------------------------------------------------------------------------

Play through once and then play again for the first verse.

Chorus:
e----------------------------------------------------------------------------------------
B----------------------------------------------------------------------------------------
G----------------------------------------------------------------------------------------
D--6-6-6-6-6-6-6-6--4-4-4-4-4-4-4-4--2--2-2-2-2-2---4--4-4-4-4-4-------------------------
A--6-6-6-6-6-6-6-6--4-4-4-4-4-4-4-4--2--2-2-2-2-2---4--4-4-4-4-4-------------------------
E--4-4-4-4-4-4-4-4--2-2-2-2-2-2-2-2--0--0-0-0-0-0---2--2-2-2-2-2-------------------------
Play 4x

e----------------------------------------------------------------------------------------
B----------------------------------------------------------------------------------------
G--4-4-4-4-4--4-4-4-4-4--4-4-4-4-4-------------------------------------------------------
D--4-4-4-4-4--4-4-4-4-4--4-4-4-4-4-----2-------------------------------------------------
A--2-2-2-2-2--2-2-2-2-2--2-2-2-2-2-----2-------------------------------------------------
E--------------------------------------0-------------------------------------------------

e----------------------------------------------------------------------------------------
B----------------------------------------------------------------------------------------
G--4-4-4-4-4-4-4-4-4-4-4-4--8-8-8-8-8-8-8-8-8-8-8-8--9-9-9-9-9-9--6-6-6-6-6-6------------
D--x-x-x-x-x-x-x-x-x-x-x-x--x-x-x-x-x-x-x-x-x-x-x-x--x-x-x-x-x-x--x-x-x-x-x-x------------
A--2-2-2-2-2-2-2-2-2-2-2-2--6-6-6-6-6-6-6-6-6-6-6-6--7-7-7-7-7-7--4-4-4-4-4-4------------
E----------------------------------------------------------------------------------------

e----------------------------------------------------------------------------------------
B----------------------------------------------------------------------------------------
G--9-9-9-9-9-9--6-6-6-6-6-6--------------------------------------------------------------
D--x-x-x-x-x-x--x-x-x-x-x-x--2x----------------------------------------------------------
A--7-7-7-7-7-7--4-4-4-4-4-4--------------------------------------------------------------
E----------------------------------------------------------------------------------------

Then play chorus 3x

You will have to listen to song for struming.
e----------------------------------------------------------------------------------------
B----------------------------------------------------------------------------------------
G--4-4-4-4-4-4-4-4-4-4-4-4---------------------------4-4-4-4-4-4-4-4-4-4-4-4-------------
D--4-4-4-4-4-4-4-4-4-4-4-4--2-2-2-2-2-2-2-2-2-2-2-2--4-4-4-4-4-4-4-4-4-4-4-4-------------
A--2-2-2-2-2-2-2-2-2-2-2-2--2-2-2-2-2-2-2-2-2-2-2-2--2-2-2-2-2-2-2-2-2-2-2-2-------------
E---------------------------0-0-0-0-0-0-0-0-0-0-0-0--------------------------------------

e----------------------------------------------------------------------------------------
B----------------------------------------------------------------------------------------
G----------------------------------------------------------------------------------------
D--4-4-4-4-4-4-4-4-4-4-4-4---------------------------------------------------------------
A--4-4-4-4-4-4-4-4-4-4-4-4---------------------------------------------------------------
E--2-2-2-2-2-2-2-2-2-2-2-2----2-2-2------------------------------------------------------
Play 2x PM - - -
AT end of second time play this when Tom starts singing "I time bomb"
e----------------------------------------------------------------------------------------
B----------------------------------------------------------------------------------------
G----------------------------------------------------------------------------------------
D--2-2-2-2-2-2-2-2-2-2-2-2--6-6-6-6-6-6-6-6-6-6-6-6--4-4-4-4-4-4-4-4-4-4-4-4-------------
A--2-2-2-2-2-2-2-2-2-2-2-2--6-6-6-6-6-6-6-6-6-6-6-6--4-4-4-4-4-4-4-4-4-4-4-4-------------
E--0-0-0-0-0-0-0-0-0-0-0-0--4-4-4-4-4-4-4-4-4-4-4-4--2-2-2-2-2-2-2-2-2-2-2-2-------------

Interlude:
e----------------------------------------------------------------------------------------
B----------------------------------------------------------------------------------------
G----------------------------------------------------------------------------------------
D--1--------------4--------------------------1-------------------------------------------
A---------2-------------------------------------------2----------------------------------
E--------------------------------------------------------------0-------------------------

e----------------------------------------------------------------------------------------
B----------------------------------------------------------------------------------------
G----------------------------------------------------------------------------------------
D--1----------------------------------------1--------------------------------------------
A--------=----------4----------------------------------------2---------------------------
E---------2-----------------------------------------0------------------------------------

INTRO:1x
VERSE:3x
CHORUS:4x
2 VERSE:4x
CHORUS:3x
BRIDGE:1X
INTERLUDE:1X

HAVE FUN AND GET READY FOR BLINK'S NEW ALBUM!!!!
Get this song at amazon.com      Ebay     Ringtones Ringtones  


Learn to play: Songwriting, Piano, Harmonica, Guitar
Also available at Muzikum: Blink 182 - Anthem lyrics

Related Blink 182 Tabs

Apple Shampoo tabs
Rollercoaster tabs
Anthem Part Ii tabs
Freak Scene tabs
What Went Wrong tabs
Life Is So Boring tabs
Pathetic Intro tabs
Marks Boyfriend tabs
Adams Song(sweet) tabs
Fentoozler tabs
Seasons In The Sun tabs
Reebok Commercial tabs
Rich Lips Live Intro tabs
Shut Up tabs
I'm Lost Without You(acoustic Chords) tabs
B J tabs
Dysentary Gary tabs
Dammit (live An Normal 100%) tabs
Wrecked Him tabs
I Wont Be Home For Christmas tabs


Guitar Tabs









All tabs are property and copyright of their owners. All tabs provided for educational purposes only. Privacy Policy, DMCA