Blink 182

Anthem Pt. 2 Tabs



More from Blink 182

Blink 182 Tabs
Blink 182 Chords
Blink 182 Bass
Blink 182 Lyrics




Intro:

E||----------------------------------------------------
B||--8-----8-----6-----6------5-----5-----6-----6------
G||-----5-----5-----5-----5------5-----5-----5-----5--- Repeat 4 times
D||----------------------------------------------------
A||----------------------------------------------------
E||----------------------------------------------------

E||------------------------------------------------------------------
B||------------------------------------------------------------------
G||------------------------------------------------------------------
D||------2h-3------2------2h-3------2------2h-3------2------0------0- Repeat 4 times
A||--33--------33-----33--------33-----33--------33-----33----33-----
E||------------------------------------------------------------------
P.M |--| |--| |--| |--| |--| |--| |--| |--|

Then:
E||----------------
B||----------------
G||-5555-5555------
D||-5555-5555------
A||-3333-3333------
E||----------------


E||----------------------------
B||----------------------------
G||--9----10----9----5----7----
D||--x----x-----x----x----x---- Repeat 4 times
A||--7----8-----7----3----5----
E||----------------------------
Last time play this

E||----------------
B||----------------
G||--9----10---5---
D||--x----x----x---
A||--7----8----3---
E||----------------



Verse:

Bass plays until guitar comes in with...

E||------------------------
B||------------------------
G||--5---------------------
D||--5-x16---7------3------ Repeat Twice
A||--3-------7-x8---3-x8---
E||----------5------1------
P.M |-------------------|

bass interlude thing:

E||------------------------------------------
B||------------------------------------------
G||------------------------------------------
D||-------2--------------0-------------------
A||--0---------0------------------------3----
E||-----------------3---------3----1---------


Chorus:

E||----------------------
B||----------------------
G||------------5---------
D||--2----3----5----5---- Repeat twice then the third time
is palm muted
A||--2----3----3----5----
E||--0----1---------3----


Outro:

Just repeat this a bunch of times:

E||------------------------------------------------------------------
B||------------------------------------------------------------------
G||------------------------------------------------------------------
D||------2h-3------2------2h-3------2------2h-3------2------0------0- Repeat 4 times
A||--33--------33-----33--------33-----33--------33-----33----33-----
E||------------------------------------------------------------------
P.M |--| |--| |--| |--| |--| |--| |--| |--|

Then end on:

E||-------
B||-------
G||--5----
D||--5----
A||--3----
E||-------



Get this song at amazon.com      Ebay     Ringtones Ringtones  


Learn to play: Songwriting, Piano, Harmonica, Guitar
Also available at Muzikum: Blink 182 - Anthem Pt 2 lyrics

Related Blink 182 Tabs

Carousel Live tabs
Reebok Commercial tabs
Anthem Intro tabs
Pathetic Live tabs
Anthem Part Ii tabs
Lucky tabs
Give Me One Good Reason Live tabs
Dammit(done Right) tabs
Im Sorry tabs
Alone Intro tabs
Dancing With Myself Intro tabs
Time To Wake Up Intro tabs
Adam\'s Song tabs
Dead Mans Cure tabs
Dammit Interlude tabs
Dammit (live) tabs
The Longest Line Solo tabs
Jono tabs
It's Obvious tabs
The Longest Line tabs


Guitar Tabs









All tabs are property and copyright of their owners. All tabs provided for educational purposes only. Privacy Policy, DMCA