Blink 182

Anthem Part 2 (power Chord Style For People Who Get Bored) Bass Tabs



More from Blink 182

Blink 182 Tabs
Blink 182 Chords
Blink 182 Bass
Blink 182 Lyrics




Intro part 1 x4
G-3---3---1---1---0---0---1---1-----------------------
D---1---1---1---1---1---1---1---1---------------------
A-----------------------------------------------------
E-----------------------------------------------------
Intro part 2 x4
G-3-3-3-3-3-5-5-5-5-5-0-0-0-0-0-8-8-8-8-8---------------
D-3-3-3-3-3-3-3-3-3-3-0-0-0-0-0-6-6-6-6-6--------------
A------------------------------------------------------
E-----------------------------------------------------

Intro Part 3 x2
G-3-3-3-3-3-3-3-3-0-0-0-0-----------------------------
D-3-3-3-3-3-3-3-3-0-0-0-0-1-1-1-1---------------------
A-------------------------1-1-1-1---------------------
E-----------------------------------------------------

Verse x3
G-3-3-3-3-3-3-3-3-0-0-0-0-----------------------------
D-3-3-3-3-3-3-3-3-0-0-0-0-1-1-1-1---------------------
A-------------------------1-1-1-1---------------------
E-----------------------------------------------------

Verse part 2 x1
G-3-3-3-3-3-3-3-3-0-0-0-0-0-0-0-0---------------------
D-3-3-3-3-3-3-3-3-0-0-0-0-0-0-0-0---------------------
A-----------------------------------------------------
E-----------------------------------------------------

Pre-Chorus x1
G----------------------------------------------------
D---14------12----10---------------------------------
A-12---12-10-10-8-----------------------------------
E----------------------------------------------------

Repeat Verse 1 and 2
Repeat Pre-Chorus

Chorus x2
G-0-0-0-0-0-----------3-3-3-3-3----------------------
D-0-0-0-0-0-1-1-1-1-1-3-3-3-3-3-3-3-3-3-3------------
A-----------1-1-1-1-1-----------3-3-3-3-3------------
E----------------------------------------------------

Chorus Part 2 x1
G---------------------3-3-3-3-3----------------------
D-5-5-5-5-5-1-1-1-1-1-3-3-3-3-3-3-3-3-3-3------------
A-3-3-3-3-3-1-1-1-1-1-----------3-3-3-3-3------------
E----------------------------------------------------

Chorus Part 3 x1
G-------------S--------------------------------------
D-5-5-5-5-5-1-T--------------------------------------
A-3-3-3-3-3-1-O--------------------------------------
E-------------P--------------------------------------

Repeat Intro Part 2 x2
Repeat Verses, Pre-chorus, and Chorus

This is the bass solo the actual way you play it.
G-----------------------------------------------
D-----------------------------------------------
A-3-3-3-3-3-3-3-3-0-0-0-0-----------------------
E-------------------------1-1-1-1---------------

Play it 3 times then on the 4th play this 1 time
G-----------------------------------------------
D-----------------------------------------------
A-3-3-3-3-3-3-3-3-0-0-0-0-8-8-8-8---------------
E-----------------------------------------------

Then the last 2 times play this 2 times
G-17-1717-17----------------------------------
D---171717-17---------------------------------
A-----------------------------------------------
E-----------------------------------------------

Then play chorus
Then play this however many times
G-3-3-3-3-3-5-5-5-5-5-0-0-0-0-0-8-8-8-8-8---------------
D-3-3-3-3-3-3-3-3-3-3-0-0-0-0-0-6-6-6-6-6--------------
A------------------------------------------------------
E-----------------------------------------------------

G-3-3-3-3-3-5-5-5-5-50-0-0-0-0-8~---------------------
D-3-3-3-3-3-3-3-3-3-30-0-0-00-6~--------------------
A------------------------------------------------------
E------------------------------------------------------



Get this song at amazon.com      Ebay     Ringtones Ringtones  


Learn to play: Songwriting, Piano, Harmonica, Guitar
More Blink 182 lyrics available at Muzikum

Related Blink 182 Bass Tabs

Im Sorry bass
Enthused bass
First Date bass
Carousel Live bass
Dicklips bass
After Midnight Live bass
Instrumental bass
Wishing Well bass
Not Now bass
M+ms bass
Anthem part 21 bass
Adam\'s Song bass
Dumpweed bass
Wrecked Him bass
Go bass
Fuck A Dog bass
The anthem pt2 bass
Apple Shampoo bass
Untitled bass
Penetrated bass


Guitar Tabs









All tabs are property and copyright of their owners. All tabs provided for educational purposes only. Privacy Policy, DMCA