Blink 182

Always1 Tabs



More from Blink 182

Blink 182 Tabs
Blink 182 Chords
Blink 182 Bass
Blink 182 Lyrics




Here is the tab 4 this song.
Standard tuning.



Intro
(Palm Muted)
|----------------------------------------=
|----------------------------------------=
|----------------------------------------=
|---44444444-----------------------------=
|---22222222-44444444-6666666666666666---=
|------------22222222-4444444444444444---=

|----------------------------------------=
|----------------------------------------=
|----------------------------------------=
|---44444444-----------------------------=
|---22222222-44444444-6666666622222222---=
|------------22222222-4444444400000000---=


Pre-Chorus

Guitar 1
|----------=
|---4~~~---=
|---4~~~---=
|---4~~~---=
|---2~~~---=
|----------=

Guitar 2
|--------------------------------------------------------------=
|---------4---------------4---------------4--------------------=
|-----4-------4-------4-------4-------4-------4-------4-----4--=
|--------------------------------------------------------------=
|---2---2---2---2-4-4---4---4---4------------------------------=
|---------------------------------4-4---4---4---4-0-0---0-0----=


Chorus

|-----------------------------------------=
|-----------------------------------------=
|-----------------------------------------=
|---44444444-44444444---------------------=
|---22222222-22222222-44444444-22222222---=
|---------------------22222222-00000000---=

Interlude

Guitar 1
|----------=
|---4~~~---=
|---4~~~---=
|---4~~~---=
|---2~~~---=
|----------=

Guitar 2
|--------------------------------------------------------------=
|---------4---------------4---------------4--------------------=
|-----4-------4-------4-------4-------4-------4-------4-----4--=
|--------------------------------------------------------------=
|---2---2---2---2-4-4---4---4---4------------------------------=
|---------------------------------4-4---4---4---4-0-0---0-0----=


Verse 1

|-------------------=
|-------------------=
|-------------------=
|-------------------=
|---4-2-2-----------=
|---------4-2-0-2---=


Pre-chorus

Guitar 1
|----------=
|---4~~~---=
|---4~~~---=
|---4~~~---=
|---2~~~---=
|----------=

Guitar 2
|--------------------------------------------------------------=
|---------4---------------4---------------4--------------------=
|-----4-------4-------4-------4-------4-------4-------4-----4--=
|--------------------------------------------------------------=
|---2---2---2---2-4-4---4---4---4------------------------------=
|---------------------------------4-4---4---4---4-0-0---0-0----=


Chorus

|-----------------------------------------=
|-----------------------------------------=
|-----------------------------------------=
|---44444444-44444444---------------------=
|---22222222-22222222-44444444-22222222---=
|---------------------22222222-00000000---=


Bridge

Guitar 1
|-------------------------------------------------------=
|-------------------------------------------------------=
|---8---8---8---8-9-8---8---8---8-9-8---8---8---8-9-8---=
|-----9---9---9-------9---9---9-------9---9---9---------=
|-------------------------------------------------------=
|-------------------------------------------------------=

Guitar 2
|-----------------------------------------=
|-----------------------------------------=
|-----------------------------------------=
|---44444444-44444444----------66664444---=
|---22222222-22222222-44444444-44442222---=
|---------------------22222222------------=

Guitar 1

|--------------------------------------=
|--------------------------------------=
|---4~----------------4~---------------=
|---4~----4~----6~----4~----4~----6~---=
|---2~----4~----6~----2~----4~----6~---=
|---------2~----4~----------2~----4~---=

|--------------------------------------=
|--------------------------------------=
|---4~----------------4~---------------=
|---4~----4~----6~----4~----4~----6~---=
|---2~----4~----6~----2~----4~----6~---=
|---------2~----4~----------2~----4~---=

Guitar 2

Does not play.


End On

|----------=
|---4~~~---=
|---4~~~---=
|---4~~~---=
|---2~~~---=
|----------=





That's it. ENJOY!!!!!!!!!!!!!!!





Get this song at amazon.com      Ebay     Ringtones Ringtones  


Learn to play: Songwriting, Piano, Harmonica, Guitar
More Blink 182 lyrics available at Muzikum

Related Blink 182 Tabs

Depends tabs
Peggy Sue tabs
Blew Job tabs
Give Me One Good Reason Live tabs
I'm Lost Without You(acoustic Chords) tabs
Feels So Good tabs
Happy Holidays You Bastard tabs
First Date tabs
Carousel Live tabs
Cacophony Intro tabs
A New Hope Solo tabs
The Rock Show Live tabs
Seasons In The Sun tabs
Eddy tabs
Mark Tom And Travis Show tabs
Carousel tabs
Fck A Dog tabs
Anthem Part Two tabs
Adams Song Piano tabs
Mms tabs


Guitar Tabs









All tabs are property and copyright of their owners. All tabs provided for educational purposes only. Privacy Policy, DMCA