Blink 182

Always (perfect) Bass Tabs



More from Blink 182

Blink 182 Tabs
Blink 182 Chords
Blink 182 Bass
Blink 182 Lyrics




Intro/Pre-Chorus

G-44444444/66666666/88888888/44444444
D-44444444/44444444/66666666/22222222 x2
A------------------------------------
E------------------------------------

Verse 1

G-(eleven)1111111111111111/66666666/4444444444444444
D---------9-9-9-9-9-9-9-9-/88888888/6666666666666666 x3
A---------------------------------------------------
E---------------------------------------------------

G--(eleven)1111111111111111/66666666/44444444/44444444
D----------9-9-9-9-9-9-9-9-/88888888/66666666/44444444
A-----------------------------------------------------
E-----------------------------------------------------


Intro/Pre-Chorus x2

Chorus 1

G---------------------------------
D---------44444444----------------
A-22222222------------------------
E-----------------4444444400000000

Intro/Pre-Chorus x2

Verse 2

G-8--8--6-6--8-----
D--9-----8----6-4-6 x4
A------------------
E------------------

Intro/Pre-Chorus x4

Chorus 1 x4

Chorus 2
G---------------------------------
D--------------------------------- x2
A-2222222244444444----------------
E-----------------4444444400000000

Interlude
G-4-----6-----8
D-4-----4-----6 x2
A--------------
E--------------

Chorus 1 x4

Chorus 2 x6



Get this song at amazon.com      Ebay     Ringtones Ringtones  


Learn to play: Songwriting, Piano, Harmonica, Guitar
More Blink 182 lyrics available at Muzikum

Related Blink 182 Bass Tabs

Zulu bass
The Longest Line bass
Enthused (100% Perfect) bass
Dysentary Gary bass
Kaleidoscope bass
Mutt bass
Voyeur bass
Mothers Day bass
Life's So Boring (instrumental) bass
What Went Wrong (tabbed For Bass) bass
Take Off Your Pants And Jacket (album) bass
Dancing With Myself bass
Chesire Cat bass
Strings bass
Sometimes bass
Cacophony bass
Fuck A Dog bass
Asthenia bass
Love Is Dangerous bass
Josie (with Lyrics) bass


Guitar Tabs









All tabs are property and copyright of their owners. All tabs provided for educational purposes only. Privacy Policy, DMCA