Blink 182

Alone Tabs



More from Blink 182

Blink 182 Tabs
Blink 182 Chords
Blink 182 Bass
Blink 182 Lyrics

-------------------------------------------------------------------------------
ALONE - Blink-182
-------------------------------------------------------------------------------

Kremmit@mail.com

This is an old song, it's off their discontinued demo album "Flyswatter". You
can only find it on napster or maybe at a used tape store. You might find it
on e-bay too.

------------------------------------------------------------------------------
------------------------------------------------------------------------------
------------------------------------------------------------------------------
-2--3-3-2-0----5-3-2----------------------------------------------------------
-0-----------3----------------------------------------------------------------
------------------------------------------------------------------------------

------------------------------------------------------------------------------
------------------------------------------------------------------------------
-5---5---5-5-7-7-7-7-5-5-4----------------------------------------------------
-5-7-5-7-5-3-5-7--------------------------------------------------------------
-3-7-3-7-3-----5--------------------------------------------------------------
---5---5----------------------------------------------------------------------

----------------|-------------|-----------------------------------------------
----------------|-------------|-----------------------------------------------
---9-10---------|---9-10------|-----------------------------------------------
-7-9-10-10*-x10b|-7-9-10-10---|-----------------------------------------------
-7-5--8-10*-x---|-7-5--8-10---|-----------------------------------------------
-5------8-*-x---|-5-------8---|-----------------------------------------------
play this x3 play this x1 (***play that chord once only***)

------------------------------------------------------------------------------
------------------------------------------------------------------------------
-5----------------------------------------------------------------------------
-5-7-----7-----7-----9-7------------------------------------------------------
-3-7--------------------------------------------------------------------------
---5-5-5---5-5---5-5----------------------------------------------------------
Get this song at amazon.com      Ebay     Ringtones Ringtones  


Learn to play: Songwriting, Piano, Harmonica, Guitar
Also available at Muzikum: Blink 182 - Alone lyrics

Related Blink 182 Tabs

Instrumental Song tabs
Adams Song(sweet) tabs
Zulu tabs
Alone Intro tabs
Always tabs
Time To Wake Up tabs
The Rock Show tabs
Voyeur tabs
Violence tabs
Mutt Live tabs
Anthem Part Two Live tabs
Untitled Live tabs
The Girl Next Door tabs
Anthem Pt. 2 tabs
Adams Song(perfect) tabs
Touchdown Boy tabs
Family Reunion tabs
Alone tabs
Josie tabs
Does My Breath Smell tabs


Guitar Tabs









All tabs are property and copyright of their owners. All tabs provided for educational purposes only. Privacy Policy, DMCA