Blink 182

All The Small Things Tabs



More from Blink 182

Blink 182 Tabs
Blink 182 Chords
Blink 182 Bass
Blink 182 Lyrics

All the Small Things

By. Blink 182



This is my first tab and I think its a 100% correct



Intro

e|------|

B|------|

G|------|

D|-5-3--|

A|-5-3--|

E|-3-1--|



e|---------------------------------------|

B|----------66666666---------------------|

G|-55555555-55555555---------------------|

D|-55555555-33333333-555555555------333--| x2

A|-33333333----------555555555-0000-333--|

E|-------------------333333333------111--|

PM ....



Verse PM

e|--------------------------------------|

B|--------------------------------------|

G|--------------------------------------|

D|-55555555-----------------------------| x4

A|-33333333-55555555-33333333-55555555--|

E|----------33333333-11111111-33333333--|



e|-----|

B|-----|

G|-5---|

D|-5---|

A|-3---|

E|-----|



Chorus (Distortion)



e|-------------------------------------|

B|-------------------------------------|

G|-5555555555555555--------------------|

D|-5555555555555555-55555555-33333333--| x2

A|-3333333333333333-55555555-33333333--|

E|------------------33333333-11111111--|



e|-------------------------------------------|

B|-------------------------------------------|

G|-55555555-10101010-9999-77777777------555--|

D|-xxxxxxxx-xxxxxxx--xxxx-xxxxxxxx------xxx--| x2

A|-33333333-8-8-8-8--7777-55555555-0000-333--|

E|-------------------------------------------|

PM....



Verse PM (Distortion)

e|--------------------------------------|

B|--------------------------------------|

G|--------------------------------------|

D|-55555555-----------------------------| x2

A|-33333333-55555555-33333333-55555555--|

E|----------33333333-11111111-33333333--|



e|-----|

B|-----|

G|-5---|

D|-5---|

A|-3---|

E|-----|





Chorus (distortion)

e|-------------------------------------|

B|-------------------------------------|

G|-5555555555555555--------------------|

D|-5555555555555555-55555555-33333333--| x2

A|-3333333333333333-55555555-33333333--|

E|------------------33333333-11111111--|



Interlude(Distortion)

e|------------|

B|------------|

G|---------5--|

D|-3---5---5--|

A|-3---5---3--|

E|-1---3------|



PM

e|----------------------------------|

B|----------------------------------|

G|-5-5-5-5-4-4-7-7------------------|

D|--5-5-5-5-5-5-5-5-----------------| x3

A|----------------------------------|

E|----------------------------------|

pm..................................

Chorus (distortion)

e|-------------------------------------|

B|-------------------------------------|

G|-5555555555555555--------------------| pm once then play twice

D|-5555555555555555-55555555-33333333--|

A|-3333333333333333-55555555-33333333--|

E|------------------33333333-11111111--|





e|--------------------------------------|

B|--------------------------------------|

G|-5555555555555555---------------------|

D|-5555555555555555-55555555-----3-----3|

A|-3333333333333333-55555555-----3-----3|

E|------------------33333333-1-1-1-1-1-1|

PM . . . .

e|--------------------------------------------------|

B|--------------------------------------------------|

G|-5555555555555555---------------------------------|

D|-5555555555555555-55555555-----3-----3-----3-----3|

A|-3333333333333333-55555555-----3-----3-----3-----3|

E|------------------33333333-1-1-1-1-1-1-1-1-1-1-1-1|



PM .. .... ..... ....



e|-----|

B|-----|

G|-5---|

D|-5---|

A|-3---| let ring

E|-----|

Get this song at amazon.com      Ebay     Ringtones Ringtones  


Learn to play: Songwriting, Piano, Harmonica, Guitar
Also available at Muzikum: Blink 182 - All The Small Things lyrics

Related Blink 182 Tabs

Sometimes tabs
21 Days tabs
All The Small Things tabs
Hollywood tabs
Here\'s Your Letter tabs
Macca Is Gay tabs
Red Skies tabs
Wasting Time tabs
M&m's tabs
Anthem tabs
Online Songs Solo tabs
Adams Song tabs
Don't Tell Me That Its Over tabs
Touchdown Boy tabs
F k A Dog tabs
Anthem Part Two tabs
Cacaphony tabs
Take Off Your Pants & Jaket tabs
Mutt tabs
The Enema Strikes Back tabs


Guitar Tabs









All tabs are property and copyright of their owners. All tabs provided for educational purposes only. Privacy Policy, DMCA