Blink 182

All The Small Things (live) Tabs



More from Blink 182

Blink 182 Tabs
Blink 182 Chords
Blink 182 Bass
Blink 182 Lyrics

tabs-database.com[http://www.tabs-database.com.com/]
Song: All The Small Things (Live)

Band: Blink 182

Tabbed by: Wiki

Email: webmaster at tabs-database.com.com

Tuning: Standard



If you do vote to remove this tab in

the “Approve Queue” would you be so kind

to add me to MSN so that we can discuss

what is so wrong about my tab?



Rate this aswell.



Intro

e|---------|

B|---------|

G|-5-------|

D|-5-------|

A|-3-------|

E|---------|

Turn up the vol. knob on this note for the start



e|----------------------------------------------------------------|

B|-----------------------6-6-6-6-6-6-6-6--------------------------|

G|------5-5-5-5-5-5-5-5--5-5-5-5-5-5-5-5--------------------------|

D|-5-3--5-5-5-5-5-5-5-5--3-3-3-3-3-3-3-3--5-5-5-5-5-5-5-5---------|

A|-5-3--3-3-3-3-3-3-3-3-------------------5-5-5-5-5-5-5-5---------|

E|-3-1------------------------------------3-3-3-3-3-3-3-3---------|



e|----------------------------------------------------------------|

B|----------------------------------------------------------------|

G|----------------------------------------------------------------|

D|----------1-1-1-------------------------------------------------| x 2

A|-0-0-0-0--1-1-1-------------------------------------------------|

E|----------3-3-3-------------------------------------------------|

Pm.....



Verse

e|----------------------------------------------------------------|

B|----------------------------------------------------------------|

G|--5-5-5-5-5-5-5-5-----------------------------------------------|

D|--5-5-5-5-5-5-5-5--5-5-5-5-5-5-5-5--3-3-3-3-3-3-3-3-------------|

A|--3-3-3-3-3-3-3-3--5-5-5-5-5-5-5-5--3-3-3-3-3-3-3-3-------------|

E|-------------------3-3-3-3-3-3-3-3--1-1-1-1-1-1-1-1-------------|

Pm............. ............... ...............



e|-------------------|

B|-------------------|

G|-------------------|

D|--5-5-5-5-5-5-5-5--| x 4

A|--5-5-5-5-5-5-5-5--|

E|--3-3-3-3-3-3-3-3--|

...............



Pre-Chorus

e|-----|

B|-----|

G|-5---|

D|-5---|

A|-3---| Let this note ring

E|-----|



Chorus

e|--------------------------------------------------------------------|

B|--------------------------------------------------------------------|

G|--5-5-5-5-5-5-5-5-5-5-5-5-5-5-5-5-----------------------------------|

D|--5-5-5-5-5-5-5-5-5-5-5-5-5-5-5-5--5-5-5-5-5-5-5-5--3-3-3-3-3-3-3-3-|

A|--3-3-3-3-3-3-3-3-3-3-3-3-3-3-3-3--5-5-5-5-5-5-5-5--3-3-3-3-3-3-3-3-|

E|-----------------------------------3-3-3-3-3-3-3-3--1-1-1-1-1-1-1-1-|

Do this two times ^^



e|--------------------------------------------------------------------|

B|--------------------------------------------------------------------|

G|-5-5-5-5-5-5-5-5--10-10-10-10-9-9-9-9-9-7-7-7-7-7-7-7-7-------------|

D--x-x-x-x-x-x-x-x—-x--x--x--x--x-x-x-x-x-x-x-x-x-x-x-x-x-------------|

A|-3-3-3-3-3-3-3-3--8--8--8--8--7-7-7-7-7-5-5-5-5-5-5-5-5--0-0-0-0----|

E|--------------------------------------------------------------------|

Pm.....

e|-----------|

B|-----------|

G|-----------|

D|--3-3-3----| x 2

A|--3-3-3----|

E|--1-1-1----|



Verse

e|----------------------------------------------------------------|

B|----------------------------------------------------------------|

G|--5-5-5-5-5-5-5-5-----------------------------------------------|

D|--5-5-5-5-5-5-5-5--5-5-5-5-5-5-5-5--3-3-3-3-3-3-3-3-------------|

A|--3-3-3-3-3-3-3-3--5-5-5-5-5-5-5-5--3-3-3-3-3-3-3-3-------------|

E|-------------------3-3-3-3-3-3-3-3--1-1-1-1-1-1-1-1-------------|

Pm............. ............... ...............



e|-------------------|

B|-------------------|

G|-------------------|

D|--5-5-5-5-5-5-5-5--| x 2

A|--5-5-5-5-5-5-5-5--|

E|--3-3-3-3-3-3-3-3--|

...............



Pre-Chorus

e|-----|

B|-----|

G|-5---|

D|-5---|

A|-3---| Let this note ring

E|-----|



Chorus

e|--------------------------------------------------------------------|

B|--------------------------------------------------------------------|

G|--5-5-5-5-5-5-5-5-5-5-5-5-5-5-5-5-----------------------------------|

D|--5-5-5-5-5-5-5-5-5-5-5-5-5-5-5-5--5-5-5-5-5-5-5-5--3-3-3-3-3-3-3-3-|

A|--3-3-3-3-3-3-3-3-3-3-3-3-3-3-3-3--5-5-5-5-5-5-5-5--3-3-3-3-3-3-3-3-|

E|-----------------------------------3-3-3-3-3-3-3-3--1-1-1-1-1-1-1-1-|

Do this two times ^^



Interlude

e|----------------|

B|----------------|

G|-5~---5~---7~---|

D|-5~---3~---5~---|

A|-3~-------------|

E|----------------|



e|--------------------------------------|

B|--------------------------------------|

G|--5---5---5---5----4---4----7---7-----|

D|----5---5---5---5----5---5----5---5---| x 4

A|--------------------------------------|

E|--------------------------------------|

Pm...............................



e|--------------------------------------------------------------------|

B|--------------------------------------------------------------------|

G|-5-5-5-5-5-5-5-5-5-5-5-5-5-5-5-5------------------------------------|

D|-5-5-5-5-5-5-5-5-5-5-5-5-5-5-5-5--3-3-3-3-3-3-3-3--5-5-5-5-5-5-5-5--|

A|-3-3-3-3-3-3-3-3-3-3-3-3-3-3-3-3--3-3-3-3-3-3-3-3--5-5-5-5-5-5-5-5--|

E|----------------------------------1-1-1-1-1-1-1-1--3-3-3-3-3-3-3-3--|

Pm............................. ............... ...............



Chorus

e|--------------------------------------------------------------------|

B|--------------------------------------------------------------------|

G|--5-5-5-5-5-5-5-5-5-5-5-5-5-5-5-5-----------------------------------|

D|--5-5-5-5-5-5-5-5-5-5-5-5-5-5-5-5--5-5-5-5-5-5-5-5--3-3-3-3-3-3-3-3-|

A|--3-3-3-3-3-3-3-3-3-3-3-3-3-3-3-3--5-5-5-5-5-5-5-5--3-3-3-3-3-3-3-3-|

E|-----------------------------------3-3-3-3-3-3-3-3--1-1-1-1-1-1-1-1-|

Do this two times ^^





e|--------------------------------------------------------------------|

B|--------------------------------------------------------------------|

G|--5-5-5-5-5-5-5-5-5-5-5-5-5-5-5-5-----------------------------------|

D|--5-5-5-5-5-5-5-5-5-5-5-5-5-5-5-5--5-5-5-5-5-5-5-5-------3-------3--|

A|--3-3-3-3-3-3-3-3-3-3-3-3-3-3-3-3--5-5-5-5-5-5-5-5-------3-------3--|

E|-----------------------------------3-3-3-3-3-3-3-3--1-1--1--1-1--1--|

Pm. Pm.



e|--------------------------------------------------------------------|

B|--------------------------------------------------------------------|

G|--5-5-5-5-5-5-5-5-5-5-5-5-5-5-5-5-----------------------------------|

D|--5-5-5-5-5-5-5-5-5-5-5-5-5-5-5-5--5-5-5-5-5-5-5-5-------3-------3--|

A|--3-3-3-3-3-3-3-3-3-3-3-3-3-3-3-3--5-5-5-5-5-5-5-5-------3-------3--|

E|-----------------------------------3-3-3-3-3-3-3-3--1-1--1--1-1--1--|

Pm. Pm.

e|--------------------------------------------------------------------|

B|--------------------------------------------------------------------|

G|---------------------5~---------------------------------------------|

D|-------3—------3-----5~---------------------------------------------|

A|-------3-------3-----3~---------------------------------------------|

E|--1-1--1--1-1--1----------------------------------------------------|

Pm. Pm.



That’s the song all done.
Added by tabs-database.com and our distinguished partners
Get this song at amazon.com      Ebay     Ringtones Ringtones  


Learn to play: Songwriting, Piano, Harmonica, Guitar
Also available at Muzikum: Blink 182 - All The Small Things Live lyrics

Related Blink 182 Tabs

I Miss You Live tabs
Touchdown Boy Intro tabs
Man Overboard tabs
Dude Ranch tabs
Anthem Pt. 2 tabs
Seasons In The Sun tabs
Freak Scene tabs
Dammit (live) tabs
Adam Song tabs
Violence tabs
Time tabs
Dumpweed live tabs
First Date tabs
Dysentary Gary tabs
Feelin This tabs
The Rock Show tabs
Don't Leave Me (live) tabs
Carousel tabs
Party Song, The tabs
Fck A Dog tabs


Guitar Tabs









All tabs are property and copyright of their owners. All tabs provided for educational purposes only. Privacy Policy, DMCA

Online converter - videoconverter.com