Blink 182

All The Small Things(easy) Bass Tabs



More from Blink 182

Blink 182 Tabs
Blink 182 Chords
Blink 182 Bass
Blink 182 Lyrics




Intro:
G|------------------------------------------------------------------|
D|-----------------0-------------------------------0----------------|
A|--333333333333333-----------------333333333333333-----------------|
E|31----------------333333333xxxx111----------------333333333xxxx111|

Verse:
G|---------------------------------|
D|---------------------------------| x2
A|33333333-------------------------|
E|--------3333333311111111133333333|

Pre-Chorus:
G|--------00000000--------|
D|----------------33333333|
A|3~~~~~~~----------------|
E|------------------------|

Chorus:
G|----------------000000000--------|
D|-------------------------33333333| x4
A|3333333333333333-----------------|
E|---------------------------------|

Interlude:
G|------------------------|
D|------------------------|
A|33333333----------------|
E|--------333333333xxxx111|

Verse 2:
G|---------------------------------|
D|---------------------------------| x2
A|33333333-------------------------|
E|--------3333333311111111133333333|

Coda:
G|-----------------------0~~~~~~~|
D|---------------3~~~~~~~--------| x3
A|3~~~~~~~~~~~~~~----------------|
E|-------------------------------|

G|------------------------00000000|
D|----------------33333333--------|
A|3333333333333333----------------|
E|--------------------------------|

Outro:
G|----------------00000000--------|
D|------------------------33333333| x2
A|3333333333333333----------------|
E|--------------------------------|


G|----------------00000000-------|
D|------------------------333-333|
A|3333333333333333---------------|
E|-------------------------------|

G|----------------00000000------------------|
D|------------------------333-333-333-333---|
A|3333333333333333------------------------3~|
E|------------------------------------------|



Get this song at amazon.com      Ebay     Ringtones Ringtones  


Learn to play: Songwriting, Piano, Harmonica, Guitar
More Blink 182 lyrics available at Muzikum

Related Blink 182 Bass Tabs

Carousel (bridge) bass
Peggy Sue bass
I Won't Be Home For Christmas bass
M + Ms 1000% bass
Whats My Age Again bass
Anthem Part 2 (power Chord Style For People Who Get Bored) bass
Dude Ranch Full Album - Bass Tab bass
T V bass
Anthem Prt Ii bass
My Pet Sally bass
A New Hope bass
I Miss You bass
Obvious bass
Enthused (100% Perfect) bass
Love Is Dangerous bass
Emo bass
Family Reunion(live) bass
First Date bass
Dick Lips bass
M+ms bass


Guitar Tabs









All tabs are property and copyright of their owners. All tabs provided for educational purposes only. Privacy Policy, DMCA