Blink 182

All The Small Things 100% Bass Tabs



More from Blink 182

Blink 182 Tabs
Blink 182 Chords
Blink 182 Bass
Blink 182 Lyrics




Intro:
G:|-----|
D:|-----|
A:|-3-1-|
E:|-----|


Main Riff:
G:|-----------------|-----------------|-----------------|-----------------|
D:|-----------------|-3-3-3-3-2-2-2-2-|-----------------|-----------------| 2x
A:|-3-3-3-3-3-3-3-3-|-----------------|-----------------|-----------------|
E:|-----------------|-----------------|-3-3-3-3-3-3-3-3-|-0-0-1-1-1-------|


Verse:
G:|-----------------|-----------------|-----------------|-----------------|
D:|-----------------|-----------------|-----------------|-----------------| 4x
A:|-3-3-3-3-3-3-3-3-|-----------------|-----------------|-----------------|
E:|-----------------|-3-3-3-3-3-3-3-3-|-1-1-1-1-1-1-1-1-|-3-3-3-3-3-3-3-3-|


Pre-Chorus:
G:|-----------------|-----------------|-----------------|-----------------|
D:|-----------------|-----------------|-5-5-5-5-5-5-5-5-|-3-3-3-3-3-3-3-3-|
A:|-3-3-3-3-3-3-3-3-|-3-3-3-3-3-3-3-3-|-----------------|-----------------|
E:|-----------------|-----------------|-----------------|-----------------|


Chorus:
G:|-----------------|-----------------|-----------------|-----------------|
D:|-----------------|-----------------|-----------------|-----------------| 2x
A:|-3-3-3-3-3-3-3-3-|-3-3-3-3-3-3-3-3-|-----------------|-----------------|
E:|-----------------|-----------------|-3-3-3-3-3-3-3-3-|-1-1-1-1-1-1-1-1-|


Main Riff:
G:|-----------------|-----------------|-----------------|-----------------|
D:|-----------------|-3-3-3-3-2-2-2-2-|-----------------|-----------------| 2x
A:|-3-3-3-3-3-3-3-3-|-----------------|-----------------|-----------------|
E:|-----------------|-----------------|-3-3-3-3-3-3-3-3-|-0-0-1-1-1-------|


Verse:
G:|-----------------|-----------------|-----------------|-----------------|
D:|-----------------|-----------------|-----------------|-----------------| 2x
A:|-3-3-3-3-3-3-3-3-|-----------------|-----------------|-----------------|
E:|-----------------|-3-3-3-3-3-3-3-3-|-1-1-1-1-1-1-1-1-|-3-3-3-3-3-3-3-3-|


Pre-Chorus:
G:|-----------------|-----------------|-----------------|-----------------|
D:|-----------------|-----------------|-5-5-5-5-5-5-5-5-|-3-3-3-3-3-3-3-3-|
A:|-3-3-3-3-3-3-3-3-|-3-3-3-3-3-3-3-3-|-----------------|-----------------|
E:|-----------------|-----------------|-----------------|-----------------|


Chorus:
G:|-----------------|-----------------|-----------------|-----------------|
D:|-----------------|-----------------|-----------------|-----------------| 2x
A:|-3-3-3-3-3-3-3-3-|-3-3-3-3-3-3-3-3-|-----------------|-----------------|
E:|-----------------|-----------------|-3-3-3-3-3-3-3-3-|-1-1-1-1-1-1-1-1-|

AFTER PLAY THIS:
G:|-------------------|-------------------|-------------------|
D:|-------------------|-------------------|-------------------|
A:|-3-------8---10----|-3-------8---10----|-3-------8---10----|
E:|-------------------|-------------------|-------------------|

AND THENE THIS:
G:|-----------------|-----------------|-----------------|-------------------------|
D:|-----------------|-----------------|-----------------|-------------------------|
A:|-3-3-3-3-3-3-3-3-|-3-3-3-3-3-3-3-3-|-8-8-8-8-8-8-8-8-|-10-10-10-10-10-10-10-10-|
E:|-----------------|-----------------|-----------------|-------------------------|


Pre-Chorus:
G:|-----------------|-----------------|-----------------|-----------------|
D:|-----------------|-----------------|-5-5-5-5-5-5-5-5-|-3-3-3-3-3-3-3-3-| 4x
A:|-3-3-3-3-3-3-3-3-|-3-3-3-3-3-3-3-3-|-----------------|-----------------|
E:|-----------------|-----------------|-----------------|-----------------|


Outro:
G:|-----------------|-----------------|-----------------|-----------------|
D:|-3-3-3-3-3-3-3-3-|-----------------|-----------------|-----------------|
A:|-----------------|-3---------------|-----------------|-----------------|
E:|-----------------|-----------------|-----------------|-----------------|



Get this song at amazon.com      Ebay     Ringtones Ringtones  


Learn to play: Songwriting, Piano, Harmonica, Guitar
More Blink 182 lyrics available at Muzikum

Related Blink 182 Bass Tabs

All The Small Things(easy) bass
Verse For Cacophony bass
Whats My Age Agian bass
Just About Done bass
Wendy Clear bass
Take Off Your Pants And Jacket (album) bass
Josie! 100% Correct bass
Adam\'s Song bass
Romeo And Rebecca bass
Enema bass
Mothers Day bass
Im Sorry bass
Blew Job bass
All The Small Things 100% bass
The Party Song bass
Heart\'s All Gone bass
Dick Lips bass
Always bass
Adams Song Live bass
Transvestite bass


Guitar Tabs









All tabs are property and copyright of their owners. All tabs provided for educational purposes only. Privacy Policy, DMCA