Blink 182

All Teh Small Things Bass Tabs



More from Blink 182

Blink 182 Tabs
Blink 182 Chords
Blink 182 Bass
Blink 182 Lyrics




Intro:
G|-------------------------------------------------------------------|
D|-------------------------------------------------------------------|
A|---3333333333333335----------------3333333333333335----------------|
E|31-----------------333333333xxxx111----------------333333333xxxx111|

Verse: x4
G|---------------------------------|
D|---------------------------------|
A|33333333-------------------------|
E|--------3333333311111111133333333|

Pre-Chorus:
G|----------------------|
D|----------------------|
A|--------10(x8)88888888|
E|8~~~~~~~--------------|

Chorus: x4
G|---------------------------------------|
D|---------------------------------------|
A|----------------10(x16)8888888888888888|
E|8888888888888888-----------------------|

Interlude: x2
G|--------------------------------|
D|--------------------------------|
A|3333333333333335----------------|
E|----------------333333333xxxx111|

Verse 2: x2
G|---------------------------------|
D|---------------------------------|
A|33333333-------------------------|
E|--------3333333311111111133333333|

Coda: x3
G|--------------------------------|
D|--------------------------------|
A|---------------8~~~~~~~10~~~~~~~|
E|8~~~~~~~~~~~~~~-----------------|

G|------------------------------|
D|------------------------------|
A|----------------8888888810(x8)|
E|8888888888888888--------------|

Outro:
G|------------------------------|
D|------------------------------| x2
A|----------------10(x8)88888888|
E|8888888888888888--------------|

G|-----------------------------|
D|-----------------------------|
A|----------------10(x8)888-888|
E|8888888888888888-------------|

G|---------------------------------------|
D|---------------------------------------|
A|----------------10(x8)888-888-888-888--|
E|8888888888888888---------------------8~|



Get this song at amazon.com      Ebay     Ringtones Ringtones  


Learn to play: Songwriting, Piano, Harmonica, Guitar
More Blink 182 lyrics available at Muzikum

Related Blink 182 Bass Tabs

MH 4.18.2011 bass
Enema bass
Going Away To College bass
Online Song bass
All Teh Small Things bass
Violence bass
Go bass
Whats My Age Agian bass
First Date bass
Carousel - Blink 182 bass
The Rockshow bass
Whats My Age Again Live bass
Happy Holidays You Bastard bass
This Is Home bass
21 Days bass
I'm Lost Without You bass
Hold On bass
T V bass
Adam\'s Song bass
Dysentery Gary bass


Guitar Tabs









All tabs are property and copyright of their owners. All tabs provided for educational purposes only. Privacy Policy, DMCA

Online converter - videoconverter.com