Blink 182

Aliens Exist (live) Tabs



More from Blink 182

Blink 182 Tabs
Blink 182 Chords
Blink 182 Bass
Blink 182 Lyrics

tabs-database.com[http://www.tabs-database.com.com/]
Blink 182

Aliens Exist



Intro

E|---------------------------------|

B|---------------------------------|

G|-4-4-4-4-4-4-4-4-4-4-4-4-4-4-4-4-| X1

D|-4-4-4-4-4-4-4-4-4-4-4-4-4-4-4-4-|

A|-2-2-2-2-2-2-2-2-2-2-2-2-2-2-2-2-|

E|---------------------------------|

. . . . . . . . . . . . . . . .



Pre Verse

E|----------------------------------------------------|

B|----------------------------------------------------|

G|-4---------------------------------44444-4-4--------| X1

D|-x-let-ring------------------------44444-4-4-2222-2-|

A|-2---------------------------------22222-2-2-2222-2-|

E|-----------------------\pickslide\-----------0000-0-|



E|------------------------------------------------------|

B|------------------------------------------------------|

G|-----------------44444-4-4----------------------------| X1

D|-6-6-66-66-22-22-44444-4-4-2222-2-6-6-66-66-22-222222-|

A|-6-6-66-66-22-22-22222-2-2-2222-2-6-6-66-66-22-222222-|

E|-4-4-44-44-00-00-----------0000-0-4-4-44-44-00-000000-|



Verse

E|-------------------------------------|

B|-------------------------------------|

G|-44444444----------------------------| X2

D|-44444444-44444444-66666666-22222222-|

A|-22222222-44444444-66666666-22222222-|

E|----------22222222-44444444-00000000-|

........ ........ ........ ........



E|-------------------------------------|

B|-------------------------------------|

G|-44444444-66666666----------44444444-| X1

D|-44444444-66666666-66666666-44444444-|

A|-22222222-44444444-66666666-22222222-|

E|-------------------44444444----------|

........ ........ ........ ........



E|----------------------------|

B|----------------------------|

G|-44444444-------------------| X1

D|-44444444-44444444-66666666-|

A|-22222222-44444444-66666666-|

E|----------22222222-44444444-|

........ ........ ........



Chorus

E|---------------------------------------------------------------------|

B|---------------------------------------------------------------------|

G|-4444444444444444------------------4444444444444444------------------| X1

D|-4444444444444444-4444444444444444-4444444444444444-4444444444444444-|

A|-2222222222222222-4444444444444444-2222222222222222-4444444444444444-|

E|------------------2222222222222222------------------2222222222222222-|



E|--------------------------------------------|

B|--------------------------------------------|

G|--------------------------------------------| X1

D|-11-11-11-11-22-22-22-22-11-11-11-11-22-22--|

A|---2--2--2--2--2--2--2--2--2--2--2--2--2--2-|

E|--------------------------------------------|

..........................................



E|----------------------|

B|----------------------|

G|---------4------------| X1

D|-4---2---4------4---2-|

A|-4---2---2------4---2-|

E|-2---0----------2---0-|



E|-----------------------------------------------------------------------|

B|-----------------------------------------------------------------------|

G|-44444-4-4------------------------44444-4-4----------------------------| X1

D|-44444-4-4-2222-2-6-6-66-66-22-22-44444-4-4-2222-2-6-6-66-66-22-222222-|

A|-22222-2-2-2222-2-6-6-66-66-22-22-22222-2-2-2222-2-6-6-66-66-22-222222-|

E|-----------0000-0-4-4-44-44-00-00-----------0000-0-4-4-44-44-00-000000-|



Verse

E|-------------------------------------|

B|-------------------------------------|

G|-44444444----------------------------| X2

D|-44444444-44444444-66666666-22222222-|

A|-22222222-44444444-66666666-22222222-|

E|----------22222222-44444444-00000000-|

........ ........ ........ ........



E|-------------------------------------|

B|-------------------------------------|

G|-44444444-66666666----------44444444-| X1

D|-44444444-66666666-66666666-44444444-|

A|-22222222-44444444-66666666-22222222-|

E|-------------------44444444----------|

........ ........ ........ ........



E|----------------------------|

B|----------------------------|

G|-44444444-------------------| X1

D|-44444444-44444444-66666666-|

A|-22222222-44444444-66666666-|

E|----------22222222-44444444-|

........ ........ ........



Chorus

E|---------------------------------------------------------------------|

B|---------------------------------------------------------------------|

G|-4444444444444444------------------4444444444444444------------------| X1

D|-4444444444444444-4444444444444444-4444444444444444-4444444444444444-|

A|-2222222222222222-4444444444444444-2222222222222222-4444444444444444-|

E|------------------2222222222222222------------------2222222222222222-|



E|--------------------------------------------|

B|--------------------------------------------|

G|--------------------------------------------| X1

D|-11-11-11-11-22-22-22-22-11-11-11-11-22-22--|

A|---2--2--2--2--2--2--2--2--2--2--2--2--2--2-|

E|--------------------------------------------|

..........................................



E|----------------------|

B|----------------------|

G|---------4------------| X1

D|-4---2---4------4---2-|

A|-4---2---2------4---2-|

E|-2---0----------2---0-|



Post Chorus

E|------------------------------------------|

B|------------------------------------------|

G|-4-----8-----6-----9-----8----------------| X1

D|-x-X64-x-X16-x-X16-x-X16-x-X8-------------|

A|-2-----6-----4-----7-----6----------------|

E|------------------------------\pickslide\-|



E|---------------------------------------------------------|

B|---------------------------------------------------------|

G|-------------------4---------------------------4---------| X1

D|-6-----4-----2-----4-X8-4----6-----4-----2-----4-X8-4----|

A|-6-X16-4-X16-2-X16-2----4-X8-6-X16-4-X16-2-X16-2----4-X4-|

E|-4-----2-----0----------2----4-----2-----0----------2----|



Chorus

E|---------------------------------------------------------------------|

B|---------------------------------------------------------------------|

G|-4444444444444444------------------4444444444444444------------------| X1

D|-4444444444444444-4444444444444444-4444444444444444-4444444444444444-|

A|-2222222222222222-4444444444444444-2222222222222222-4444444444444444-|

E|------------------2222222222222222------------------2222222222222222-|



E|--------------------------------------------|

B|--------------------------------------------|

G|--------------------------------------------| X1

D|-11-11-11-11-22-22-22-22-11-11-11-11-22-22--|

A|---2--2--2--2--2--2--2--2--2--2--2--2--2--2-|

E|--------------------------------------------|

..........................................



E|---------------------------|

B|---------------------------|

G|---------4--------------4--| X1

D|-4---2---4------4---2---4--|

A|-4---2---2------4---2---2--|

E|-2---0----------2---0------|



Outro

E|---|

B|---|

G|-4-| X1

D|-X-|

A|-2-|

E|---|
Added by tabs-database.com and our distinguished partners
Get this song at amazon.com      Ebay     Ringtones Ringtones  


Learn to play: Songwriting, Piano, Harmonica, Guitar
Also available at Muzikum: Blink 182 - Aliens Exist Live lyrics

Related Blink 182 Tabs

A Letter To Elise tabs
Peggy Sue Live Solo tabs
Adam Song tabs
Blink 182 Album tabs
Country Song tabs
Adams Song(perfect) tabs
Adams Song Live tabs
Dammit(done Right) tabs
Anthem Part Ii tabs
Alians Exist tabs
Adoms Song tabs
Anthem Part Two tabs
The Longest Line tabs
Rock Show (live) tabs
Alone Intro tabs
78 People tabs
Grandpa Intro tabs
Marlboro Man tabs
M&ms tabs
Carousel Intro tabs


Guitar Tabs









All tabs are property and copyright of their owners. All tabs provided for educational purposes only. Privacy Policy, DMCA