Blink 182

Aliens Exist Bass Tabs



More from Blink 182

Blink 182 Tabs
Blink 182 Chords
Blink 182 Bass
Blink 182 Lyrics



******************************
* Blink 182 - Alien's Exsist *
******************************

Intro
|---||-----------------|-----------------|-----------------|-----------------|
|-4-||-----------------|-----------------|-4-4-4-4-4-4-4-4-|-----------------|
|-4-||-----------------|-----------------|-2-2-2-2-2-2-2-2-|-4-4-4-4-6-6-6-6-|
|---||-----------------|-----------------|-----------------|-----------------|

Verse
|---||-----------------|-----------------|-----------------|-----------------|
|-4-||-----------------|-----------------|-----------------|-----------------|
|-4-||-2-2-2-2-2-2-2-2-|-----------------|-----------------|-----------------|
|---||-----------------|-2-2-2-2-2-2-2-2-|-4-4-4-4-4-4-4-4-|-0-0-0-0-0-0-0-0-|

|---||-----------------|-----------------|-----------------|-----------------|
|-4-||-----------------|-----------------|-----------------|-----------------|
|-4-||-2-2-2-2-2-2-2-2-|-----------------|-----------------|-----------------|
|---||-----------------|-2-2-2-2-2-2-2-2-|-4-4-4-4-4-4-4-4-|-0-0-0-0-0-0-0-0-|

|---||-----------------|-----------------|-----------------|-----------------|
|-4-||-----------------|-----------------|-----------------|-----------------|
|-4-||-2-2-2-2-2-2-2-2-|-4-4-4-4-4-4-4-4-|-----------------|-----------------|
|---||-----------------|-----------------|-4-4-4-4-4-4-4-4-|-0-0-0-0-0-0-0-0-|

|---||-----------------|-----------------|-----------------|-----------------|
|-4-||-----------------|-----------------|-----------------|-----------------|
|-4-||-2-2-2-2-2-2-2-2-|-----------------|-----------------|-----------------|
|---||-----------------|-2-2-2-2-2-2-2-2-|-4-4-4-4-4-4-4-4-|-0-0-0-0-0-0-0-0-|

Interlude 1(1)
|---||-----------------|-----------------|-----------------|-----------------|
|-4-||-----------------|-----------------|-----------------|-----------------|
|-4-||-2-2-2-2-2---2-2-|-2---------------|-----------------|-----------------|
|---||-----------------|---0-0-0-0---0-0-|-0-4-4-4-4---4-4-|-4-0-0-0-0---0-0-|

|---||-----------------|-----------------|-----------------|-----------------|
|-4-||-----------------|-----------------|-----------------|-----------------|
|-4-||---2-2-2-2---2-2-|-2---------------|-----------------|-----------------|
|---||-0---------------|---0-0-0-0---0-0-|-0-4-4-4-4---4-4-|-4-0-0-0-0---0-0-|

Verse
|---||-----------------|-----------------|-----------------|-----------------|
|-4-||-----------------|-----------------|-----------------|-----------------|
|-4-||-2-2-2-2-2-2-2-2-|-----------------|-----------------|-----------------|
|---||-----------------|-2-2-2-2-2-2-2-2-|-4-4-4-4-4-4-4-4-|-0-0-0-0-0-0-0-0-|

|---||-----------------|-----------------|-----------------|-----------------|
|-4-||-----------------|-----------------|-----------------|-----------------|
|-4-||-2-2-2-2-2-2-2-2-|-----------------|-----------------|-----------------|
|---||-----------------|-2-2-2-2-2-2-2-2-|-4-4-4-4-4-4-4-4-|-0-0-0-0-0-0-0-0-|

|---||-----------------|-----------------|-----------------|-----------------|
|-4-||-----------------|-----------------|-----------------|-----------------|
|-4-||-2-2-2-2-2-2-2-2-|-4-4-4-4-4-4-4-4-|-----------------|-----------------|
|---||-----------------|-----------------|-4-4-4-4-4-4-4-4-|-0-0-0-0-0-0-0-0-|

|---||-----------------|-----------------|-----------------|-----------------|
|-4-||-----------------|-----------------|-----------------|-----------------|
|-4-||-2-2-2-2-2-2-2-2-|-----------------|-----------------|-----------------|
|---||-----------------|-2-2-2-2-2-2-2-2-|-4-4-4-4-4-4-4-4-|-----------------|

Chorus
|---||-----------------|-----------------|-----------------|-----------------|
|-4-||-----------------|---------2-2-2-2-|-----------------|-----------------|
|-4-||-2-2-2-2-2-2-2-2-|-2-2-2-2---------|-----------------|-----------------|
|---||-----------------|-----------------|-2-2-2-2-2-2-2-2-|-2-2-2-2-2-2-2-2-|

|---||-----------------|-----------------|-----------------|-----------------|
|-4-||-----------------|---------2-2-2-2-|-----------------|-----------------|
|-4-||-2-2-2-2-2-2-2-2-|-2-2-2-2---------|-----------------|-----------------|
|---||-----------------|-----------------|-2-2-2-2-2-2-2-2-|-2-2-2-2-2-2-2-2-|

|---||-----------------|-----------------|-----------------|-----------------|
|-4-||-----------------|-----------------|-----------------|-----------------|
|-4-||-----------------|-----------------|-----------------|-----------------|
|---||-4-4-4-4-4-4-4-4-|-4-4-4-4-2-2-2-2-|-0-0-0-0-0-0-0-0-|-0-0-0-0-0-0-0-0-|

|---||-----------------|-----------------|-----------------|-----------------|
|-4-||-----------------|-----------------|-----------------|-----------------|
|-4-||-----------------|-----------------|-----------------|-----------------|
|---||-4-4-4-4-4-4-4-4-|-4-4-4-4-2-2-2-2-|-0-0-0-0-0-0-0-0-|-0-0-0-0-0-0-0-0-|

|---||-----------------|--------|--------|--------|--------|-----------------|
|-4-||-----------------|--------|-4------|--------|--------|-----------------|
|-4-||-----------------|--------|-2------|--------|--------|-----------------|
|---||-2---------------|-0------|--------|--------|-2------|-0---------------|

Interlude 1(2)
|---||-----------------|-----------------|-----------------|-----------------|
|-4-||-----------------|-----------------|-----------------|-----------------|
|-4-||-2-2-2-2-2---2-2-|-2---------------|-----------------|-----------------|
|---||-----------------|---0-0-0-0---0-0-|-0-4-4-4-4---4-4-|-4-0-0-0-0---0-0-|


|---||-----------------|-----------------|-----------------|-----------------|
|-4-||-----------------|-----------------|-----------------|-----------------|
|-4-||---2-2-2-2---2-2-|-2---------------|-----------------|-----------------|
|---||-0---------------|---0-0-0-0---0-0-|-0-4-4-4-4---4-4-|-4-0-0-0-0---0-0-|

Verse
|---||-----------------|-----------------|-----------------|-----------------|
|-4-||-----------------|-----------------|-----------------|-----------------|
|-4-||-2-2-2-2-2-2-2-2-|-----------------|-----------------|-----------------|
|---||-----------------|-2-2-2-2-2-2-2-2-|-4-4-4-4-4-4-4-4-|-0-0-0-0-0-0-0-0-|

|---||-----------------|-----------------|-----------------|-----------------|
|-4-||-----------------|-----------------|-----------------|-----------------|
|-4-||-2-2-2-2-2-2-2-2-|-----------------|-----------------|-----------------|
|---||-----------------|-2-2-2-2-2-2-2-2-|-4-4-4-4-4-4-4-4-|-0-0-0-0-0-0-0-0-|

|---||-----------------|-----------------|-----------------|-----------------|
|-4-||-----------------|-----------------|-----------------|-----------------|
|-4-||-2-2-2-2-2-2-2-2-|-4-4-4-4-4-4-4-4-|-----------------|-----------------|
|---||-----------------|-----------------|-4-4-4-4-4-4-4-4-|-0-0-0-0-0-0-0-0-|

|---||-----------------|-----------------|-----------------|-----------------|
|-4-||-----------------|-----------------|-----------------|-----------------|
|-4-||-2-2-2-2-2-2-2-2-|-----------------|-----------------|-----------------|
|---||-----------------|-2-2-2-2-2-2-2-2-|-4-4-4-4-4-4-4-4-|-0---------------|

Chorus
|---||-----------------|-----------------|-----------------|-----------------|
|-4-||-----------------|---------2-2-2-2-|-----------------|-----------------|
|-4-||-2-2-2-2-2-2-2-2-|-2-2-2-2---------|-----------------|-----------------|
|---||-----------------|-----------------|-2-2-2-2-2-2-2-2-|-2-2-2-2-2-2-2-2-|

|---||-----------------|-----------------|-----------------|-----------------|
|-4-||-----------------|---------2-2-2-2-|-----------------|-----------------|
|-4-||-2-2-2-2-2-2-2-2-|-2-2-2-2---------|-----------------|-----------------|
|---||-----------------|-----------------|-2-2-2-2-2-2-2-2-|-2-2-2-2-2-2-2-2-|

|---||-----------------|-----------------|-----------------|-----------------|
|-4-||-----------------|-----------------|-----------------|-----------------|
|-4-||-----------------|-----------------|-----------------|-----------------|
|---||-4-4-4-4-4-4-4-4-|-4-4-4-4-2-2-2-2-|-0-0-0-0-0-0-0-0-|-0-0-0-0-0-0-0-0-|

|---||-----------------|-----------------|-----------------|-----------------|
|-4-||-----------------|-----------------|-----------------|-----------------|
|-4-||-----------------|-----------------|-----------------|-----------------|
|---||-4-4-4-4-4-4-4-4-|-4-4-4-4-2-2-2-2-|-0-0-0-0-0-0-0-0-|-0-0-0-0-0-0-0-0-|

|---||-----------------|--------|--------|--------|--------|-----------------|
|-4-||-----------------|--------|-4------|--------|--------|-----------------|
|-4-||-----------------|--------|-2------|--------|--------|-----------------|
|---||-2---------------|-0------|--------|--------|-2------|-0---------------|

Interlude 2 Prt.1
|---||-----------------|-----------------|-----------------|-----------------|
|-4-||-----------------|-----------------|-----------------|-----------------|
|-4-||-----------------|-----------------|-----------------|-----------------|
|---||-4-4-4-4-4-4-4-4-|-4-4-4-4-4-4-4-4-|-2-2-2-2-2-2-2-2-|-2-2-2-2-2-2-2-2-|

|---||-----------------|-----------------|-----------------|-----------------|
|-4-||-----------------|-----------------|-----------------|-----------------|
|-4-||-----------------|-----------------|-2-2-2-2-2-2-2-2-|-----------------|
|---||-0-0-0-0-0-0-0-0-|-0-0-0-0-0-0-0-0-|-----------------|-2-2-2-2-2-2-2-2-|

Interlude 2 Prt.2
|---||-----------------|-----------------|-----------------|-----------------|
|-4-||-----------------|-----------------|-----------------|-----------------|
|-4-||-----------------|-----------------|-----------------|-----------------|
|---||-4-4-4-4-4-4-4-4-|-4-4-4-4-4-4-4-4-|-2-2-2-2-2-2-2-2-|-2-2-2-2-2-2-2-2-|

|---||-----------------|-----------------|-----------------|-----------------|
|-4-||-----------------|-----------------|-----------------|-----------------|
|-4-||-----------------|-----------------|-2-2-2-2-2-2-2-2-|-----------------|
|---||-0-0-0-0-0-0-0-0-|-0-0-0-0-0-0-0-0-|-----------------|-2-2-2-2-2-2-2-2-|

|---||-----------------|-----------------|-----------------|-----------------|
|-4-||-----------------|-----------------|-----------------|-----------------|
|-4-||-----------------|-----------------|-----------------|-----------------|
|---||-4-4-4-4-4-4-4-4-|-4-4-4-4-4-4-4-4-|-2-2-2-2-2-2-2-2-|-2-2-2-2-2-2-2-2-|

|---||-----------------|-----------------|-----------------|-----------------|
|-4-||-----------------|-----------------|-----------------|-----------------|
|-4-||-----------------|-----------------|-2-2-2-2-2-2-2-2-|-4-4-4-4-4-4-4-4-|
|---||-0-0-0-0-0-0-0-0-|-0-0-0-0-0-0-0-0-|-----------------|-----------------|

|---||-----------------|-----------------|-----------------|-----------------|
|-4-||-----------------|-----------------|-----------------|-----------------|
|-4-||-6-6-6-6-6-6-6-6-|-6-6-6-6-6-6-6-6-|-9-9-9-9-9-9-9-9-|-9-9-9-9-9-9-9-9-|
|---||-----------------|-----------------|-----------------|-----------------|

|---||-----------------|-----------------|-----------------|-----------------|
|-4-||-----------------|-----------------|-----------------|-4-4-4-4-4-------|
|-4-||-7-7-7-7-7-7-7-7-|-7-7-7-7-7-7-7-7-|-2-2-2-2-2-2-2-2-|-----------------|
|---||-----------------|-----------------|-----------------|-----------------|

Chorus Prt.2
|---||-----------------|-----------------|-----------------|-----------------|
|-4-||-----------------|---------2-2-2-2-|-----------------|-----------------|
|-4-||-2-2-2-2-2-2-2-2-|-2-2-2-2---------|-----------------|-----------------|
|---||-----------------|-----------------|-2-2-2-2-2-2-2-2-|-2-2-2-2-2-2-2-2-|

|---||-----------------|-----------------|-----------------|-----------------|
|-4-||-----------------|---------2-2-2-2-|-----------------|-----------------|
|-4-||-2-2-2-2-2-2-2-2-|-2-2-2-2---------|-----------------|-----------------|
|---||-----------------|-----------------|-2-2-2-2-2-2-2-2-|-2-2-2-2-2-2-2-2-|

|---||-----------------|-----------------|-----------------|-----------------|
|-4-||-----------------|-----------------|-----------------|-----------------|
|-4-||-----------------|-----------------|-----------------|-----------------|
|---||-4-4-4-4-4-4-4-4-|-4-4-4-4-2-2-2-2-|-0-0-0-0-0-0-0-0-|-0-0-0-0-0-0-0-0-|

|---||-----------------|-----------------|-----------------|-----------------|
|-4-||-----------------|-----------------|-----------------|-----------------|
|-4-||-----------------|-----------------|-----------------|-----------------|
|---||-4-4-4-4-4-4-4-4-|-4-4-4-4-2-2-2-2-|-0-0-0-0-0-0-0-0-|-0-0-0-0-0-0-0-0-|

Outro
|---||-----------------|-----------------|-----------------|-----------------|
|-4-||-----------------|-----------------|-----------------|-----------------|
|-4-||-----------------|-----------------|-2---------------|-----------------|
|---||-2---------------|-0---------------|-----------------|-----------------|

|---||-----------------|-----------------|-----------------|-----------------|
|-4-||-----------------|-----------------|-4---------------|-----------------|
|-4-||-9---------------|-7---------------|-2---------------|-----------------|
|---||-----------------|-----------------|-----------------|-----------------|

**********************************
* OWL BOI (owl__boy@hotmail.com) *
**********************************

Taken from The BassMasta -- http://www.tabs-database.com



Get this song at amazon.com      Ebay     Ringtones Ringtones  


Learn to play: Songwriting, Piano, Harmonica, Guitar
Also available at Muzikum: Blink 182 - Aliens Exist lyrics

Related Blink 182 Bass Tabs

The Longest Line bass
M+ms bass
Happy Holidays You Bastard bass
The Whole 'blink 182' Album bass
Strings bass
Carousel Budha bass
Feelin This bass
I Miss You Right Way bass
Online Songs bass
D***it bass
Alone bass
Josie (with Lyrics) bass
Mothers Day bass
Pathetic Live bass
Easy Target bass
Here\'s Your Letter bass
After Midnight bass
Heart\'s All Gone bass
First Date W/ Lyrics bass
Sex With His Sister bass


Guitar Tabs









All tabs are property and copyright of their owners. All tabs provided for educational purposes only. Privacy Policy, DMCA

Online converter - videoconverter.com