Blink 182

After Midnight Bass Tabs



More from Blink 182

Blink 182 Tabs
Blink 182 Chords
Blink 182 Bass
Blink 182 Lyrics

SONG IS IN DROP D

Intro

G |-------------------- -------------------|
D |--------------------- ------------------|
A |----0-0-----0-0---- x4 ---5-5---5-5-----|
D |--------------------- ------------------|

Verse

G |-----------------------|
D |-----------------------|
A |----0---------- -------|
D |------------0----------|


The two notes. Very easy to hear the changes

prechorus

G |--------------------------------|
D |--------------------------------|
A |---9----5----0-------9----5-----|
D |--------------------- ----------|
Once again. Just listen for the changes


Chorus

G |---------------------|
D |---------------------|
A |----0---------- -----|
D |------------0--------|


Just listen for changes again

Post chorus #1

G |---------------------------|
D |---------------------------|
A |----0-0-0-0-0-0-0-0--------|
D |---------------------------|


Plays like the "intro" but more notes are played instead of the usual 2 notes

Bridge pt 1

G |----9---7---9---7---------------|
D |----7---7---7---7---7-----------|
A |- ------------- -------5--- x 2-|
D |--------------------------------|

Bridge part 2

G |----------------------|
D |---9---11---7---------|
A |---7---9--- -5--------| x2
D |----------------------|
Get this song at amazon.com      Ebay     Ringtones Ringtones  


Learn to play: Songwriting, Piano, Harmonica, Guitar
Also available at Muzikum: Blink 182 - After Midnight lyrics

Related Blink 182 Bass Tabs

Mutt bass
Carousel (bridge) bass
Lemmings bass
Rich Lips bass
Mothers Day bass
Dammit (best You'll Find) bass
After Midnight Live bass
Let Her Go bass
Reckless Abandon bass
Man Overboard(right Verson) bass
First Date W/ Lyrics bass
Reebok Commercial bass
Romeo And Rebecca bass
Fentoozler bass
Mark Tom And Travis Show bass
M&m's bass
21 Days bass
Just About Done bass
M And Ms bass
Verse For Cacophony bass


Guitar Tabs









All tabs are property and copyright of their owners. All tabs provided for educational purposes only. Privacy Policy, DMCA