Blink 182

Adams Song(sweet) Tabs



More from Blink 182

Blink 182 Tabs
Blink 182 Chords
Blink 182 Bass
Blink 182 Lyrics




E)--------------------------------------------------|
B)--------------------------------------------------|
G)--------------------------------------------------|Repeat
D)---4-0---4-0---4-0---4-0---4-0---4-0---4-0---4-0--|
A)-2-----2-----0-----0------------------------------|
E)-------------------------3-----3-----0-----3------|



Riff 2:

E)--------------------------------------|
B)--------------------------------------|
G)-4------4----------7------7-----------|Repeat
D)-4------4----------7------7-----------|
A)-22222222-5------5-55555555-5------5--|
E)----------33333333----------33333333--|


Riff 3:

E)--------------------------------------------------------|
B)--------------------------------------------------------|
G)-----0------0-------0------0----------------------------|
D)---7------7-------9------9-------4-0---4-0---4-0---4-0--|
A)-5------5-------7------7-------2-----2------------------|
E)-------------------------------------------3-----3------|


Ending

E)--------------------------------------|
B)--------------------------------------|
G)-7------7-9------9--------------------|Repeat
D)-7------7-9------9-9------9-5------5--|
A)-55555555-77777777-9------9-5------5--|
E)-------------------77777777-33333333--|



Get this song at amazon.com      Ebay     Ringtones Ringtones  


Learn to play: Songwriting, Piano, Harmonica, Guitar
More Blink 182 lyrics available at Muzikum

Related Blink 182 Tabs

Instrumental Song tabs
A New Hope Intro tabs
13 Miles tabs
Phantom Of The Opera tabs
Dumpweed live tabs
Carousel tabs
Heres Your Letter tabs
What Went Wrong Clarinet Solo tabs
Obvious tabs
Family Reunion tabs
Enema Of The State Album tabs
Dead Mans Curve tabs
Stay Together For The Kids tabs
Easy Target tabs
Wendy Clear Bass tabs
Adams Song Complete tabs
Anthem Part Two tabs
Cacophony tabs
Grandpa Intro tabs
Wrecked Him tabs


Guitar Tabs









All tabs are property and copyright of their owners. All tabs provided for educational purposes only. Privacy Policy, DMCA