Blink 182

Adams Song (correct) Bass Tabs



More from Blink 182

Blink 182 Tabs
Blink 182 Chords
Blink 182 Bass
Blink 182 Lyrics




Verse
G----------------------------------------
D----------------------------------------
A-33333333-----------00000000-----------
E-----------11111111-----------11111111-

C Chord
G---
D-5-
A-3-
E----

Chorus Pt1
G---------------------------------------
D---------------------------------------
A-33333333-55555555-00000000----------
E------------------------------11111111-

Chorus Pt2
G----------------------------------------
D----------------------------------------
A-33333333-55555555-00000000-88888888-
E----------------------------------------

Chorus Pt3
G-------------------------------------------------
D-55555555-77777777-77777777-1010101010101010-
A-33333333-55555555-00000000--8-8-8-8-8-8-8-8--
E-------------------------------------------------

Bridge
G--------------------5----5--5----7-----7---7---5----5----5-
D----5----5----5-33---33---3--55---55---5---33---33---3----
A-33---33---3------------------------------------------------
E-------------------------------------------------------------

G--------------------5----5--5----7-----7---7---9----5---
D----5----5----5-33---33---3--55---55---5---77---33-----
A-33---33---3--------------------------------------------
E---------------------------------------------------------

Order
Verse x4
C Chord
Chorus Pt1
Chorus Pt2
Chorus Pt3 x2
C Chord (I think)
Verse x4
C Chord
Chorus Pt1, Pt2
Chorus Pt3 x2
Bridge x4
Chorus Pt1, Pt2
Chorus Pt3 x2
C Chord



Get this song at amazon.com      Ebay     Ringtones Ringtones  


Learn to play: Songwriting, Piano, Harmonica, Guitar
More Blink 182 lyrics available at Muzikum

Related Blink 182 Bass Tabs

Happy Holidays, You Basterd bass
Wrecked Him bass
Carousel Cheshire Cat bass
Mutt bass
Easy Target bass
Go bass
MH 4.18.2011 bass
Anthem Part 2 bass
Always (perfect) bass
Zulu bass
Dumpweed bass
Sometimes bass
Emo bass
21 Days bass
The Party Song bass
A New Hope Solo bass
Carousel bass
The Rock Show bass
Touchdown Boy bass
Damnit W/intro bass


Guitar Tabs









All tabs are property and copyright of their owners. All tabs provided for educational purposes only. Privacy Policy, DMCA