Blink 182

Adams Song Bass Tabs



More from Blink 182

Blink 182 Tabs
Blink 182 Chords
Blink 182 Bass
Blink 182 Lyrics

Date: Sat, 26 May 2001 13:04:26 -0400
From: InCoGnItO900@aol.com
Subject: b/blink_182/adams_song.btab

Blink 182
Adam's Song   BTAB
Normal version - nothing special


Intro  X1   Guitar only

G:------------------------------------------------------------------------
D:------------------------------------------------------------------------
A:33333333-------------------------------------------------------------
E:--------111111115555555511111111-----------------------------               
 X4

Repeat of intro  X1

G:-------------------------------------------------------------------------
D:------------------------------------------------------------------------- 
A:3------5----------------------------------------------------------------
E:----------------5-------1-----------------------------------------------    
            X1

G:------------------------------------------------------------------------- 
D:-------------------------------------------------------------------------
A:3333333355555555-------------------------------------------------
E:------------ -----------5555555511111111--------------------------          
    X4

Repeat of intro X2

G:-------------------------------------------------------------------------
D:-------------------------------------------------------------------------
A:33333333-------------------------------------------------------------
E:------------111111115555555511111111-------------------------              
X4

Repeat of intro X1

G:-------------------------------------------------------------------------
D:-------------------------------------------------------------------------
A:3------5----------------------------------------------------------------
E:----------------5-------1-----------------------------------------------    
          X1

G:-------------------------------------------------------------------------
D:------------------------------------------------------------------------- 
A:33333333-------------------------------------------------------------
E:------------111111115555555511111111-------------------------              
X4

G:------------------------------------------------------------------------- 
D:------------------------------------------------------------------------- 
A:11111111555555557777777733333333-------------------------
E:-------------------------------------------------------------------------   
          X4

G:----------------------------------------------------------------- 
D:----------------------------------------------------------------- 
A:333333335555555533333333555555553333333355555555777777779     9995555
E:-----------------------------------------------------------------           
             X1

G:-----------------------------------------------------------------
D:----------------------------------------------------------------- 
A:3333333355555555-----------------------------------------
E:------------ ------------5555555511111111----------------                   
    X4

>From Matthew
Get this song at amazon.com      Ebay     Ringtones Ringtones  


Learn to play: Songwriting, Piano, Harmonica, Guitar
Also available at Muzikum: Blink 182 - Adams Song lyrics

Related Blink 182 Bass Tabs

Pathetic Live bass
Peggy Sue bass
Natives bass
Violence Piano Part On Bass bass
I'm Lost Without You bass
Dammit (best You'll Find) bass
Another Girl Another Planet bass
Carousel (full Length) bass
Peggy Sue Live bass
I Know A Guy Tom, Mark, And Travis Show bass
Please Take Me Home bass
Penetrated bass
Wishing Well bass
Dysentery Gary bass
M And Ms bass
Always (perfect) bass
Let Her Go bass
Strings bass
Happy Holidays U B****** bass
Asthenia bass


Guitar Tabs









All tabs are property and copyright of their owners. All tabs provided for educational purposes only. Privacy Policy, DMCA