Blink 182

Adams Song Live2 Tabs



More from Blink 182

Blink 182 Tabs
Blink 182 Chords
Blink 182 Bass
Blink 182 Lyrics

Author/Artist: Blink 182


Title: Adam's Song Live
Album: The Mark, Tom and Travis Show
Transcribed by: Corby Allred

A nice minor version of the song
Tuning:D
A
F
C
G
D

                                                                              
Intro:Clean
------------------------------------------------------------------------------
------------------------------------------------------------------------------
------------------------------------------------------------------------------
----3------3------3------3-----3------3------3------3-------------------------
------4------4------4------4-----4------4------4------4-----------------------
--6------6------4------4------2-----2------0------2---------------------------
                                                                              
Verse:Clean, palm muted
------------------------------------------------------------------------------
------------------------------------------------------------------------------
-66666666---------------------------------------------------------------------
-66666666-66666666-88888888-44444444------------------------------------------
-44444444-66666666-88888888-44444444------------------------------------------
----------44444444-66666666-22222222------------------------------------------
                                                                              
Interlude:
------------------------------------------------------------------------------
------------------------------------------------------------------------------
-----3------3------3------3---------------------------------------------------
-------4------4------4------4----3------3------3------3-----------------------
---4------4------6------6----------4------4------4------4---------------------
-------------------------------6------6------2------2-------------------------
                                                                              
PreChorus:Clean
------------------------------------------------------------------------------
------------------------------------------------------------------------------
-66666666-88888888------------------------------------------------------------
-66666666-88888888-88888888-44444444------------------------------------------
-44444444-66666666-88888888-44444444------------------------------------------
-------------------66666666-22222222------------------------------------------
                                                                              

------------------------------------------------------------------------------
------------------------------------------------------------------------------
-66666666-88888888----------1111111111111111----------------------------------
-66666666-88888888-88888888-1111111111111111----------------------------------
-44444444-66666666-88888888-9-9-9-9-9-9-9-9-----------------------------------
-------------------66666666---------------------------------------------------
                                                                              
Chorus:Distortion
------------------------------------------------------------------------------
------------------------------------------------------------------------------
-66666666-88888888------------------------------------------------------------
-66666666-88888888-88888888-44444444---------6-Ring-out-at-end-of-second-verse
-44444444-66666666-88888888-44444444---------6--------------------------------
-------------------66666666-22222222---------4--------------------------------
      
Repeat starting at Intro
                                                                      

Bass Solo then this:Clean
------------------------------------------------------------------------------
------------------------------------------------------------------------------
------------------------------------------------------------------------------
-----4----4----4----4-----4----Repeat-4-Times---------------------------------
--44---44---44---44---444-----------------------------------------------------
------------------------------------------------------------------------------

------------------------------------------------------------------------------
------------------------------------------------------------------------------
-----6----6----6----6-----6-----Repeat-4-Times--------------------------------
--66---66---66---66---666-----------------------------------------------------
------------------------------------------------------------------------------
------------------------------------------------------------------------------
      
Ending:Distortion
------------------------------------------------------------------------------
------------------------------------------------------------------------------
-66666666-88888888------------------------------------------------------------
-66666666-88888888-88888888-44444444------------------------------------------
-44444444-66666666-88888888-44444444------------------------------------------
-------------------66666666-22222222------------------------------------------

------------------------------------------------------------------------------
------------------------------------------------------------------------------
-66666666-88888888----------1111111111111111----------------------------------
-66666666-88888888-88888888-1111111111111111----------------------------------
-44444444-66666666-88888888-9-9-9-9-9-9-9-9-----------------------------------
-------------------66666666---------------------------------------------------


------------------------------------------------------------------------------
--------------------------------------Play-this-twice-------------------------
-66666666-88888888------------------------------------------------------------
-66666666-88888888-88888888-44444444--------------------6-Ring-out-second-time
-44444444-66666666-88888888-44444444--------------------6---------------------
-------------------66666666-22222222--------------------4---------------------
Get this song at amazon.com      Ebay     Ringtones Ringtones  


Learn to play: Songwriting, Piano, Harmonica, Guitar
More Blink 182 lyrics available at Muzikum

Related Blink 182 Tabs

Grandpa Intro tabs
Whats My Age Again tabs
Carousel Live tabs
Please Take Me Home tabs
Untitled tabs
Heres Your Letter tabs
Cereal tabs
Wasting Time tabs
Hold On tabs
I Wont Be Home For Christmas Intro tabs
Enema Of The State Album tabs
Point Of View tabs
Don\'t Leave Me tabs
Freak Scene tabs
Blow Job tabs
Man Overboard (intro) tabs
The Country Song tabs
Adams Song(sweet) tabs
Alians Exist tabs
Dude Ranch Album tabs


Guitar Tabs









All tabs are property and copyright of their owners. All tabs provided for educational purposes only. Privacy Policy, DMCA