Blink 182

Adam\'s Song Tabs



More from Blink 182

Blink 182 Tabs
Blink 182 Chords
Blink 182 Bass
Blink 182 Lyrics

BLINK 182

ADAM'S SONG



This Is The Easiest Way To Play This Song Without Dropping All The Strings.



Intro



E -------------------------------------------------------------------|

B -------------------------------------------------------------------|

D -------------------------------------------------------------------|

G ----2-------2-------2-------2-------2-------2----------2-------2---|

A --0---3---0---3-------3-------3-------3-------3----------3-------3-|

D ------------------5-------5-------3-------3---------0--------3-----|



Verse



E -------------------------------------------------------------------------

B -------------------------------------------------------------------------

G -------------------------------------------------------------------------

D --55555555------------22222222-------------------------------------------

A --33333333--33333333--00000000--33333333---------------------------------

D ------------33333333------------33333333---------------------------------



Interlude



E ----------------------------------------------------------------------

B ----------------------------------------------------------------------

G ----------------------------------------------------------------------

D ----5-3----5-3---7-3---7--3-------2-------2--------2--------2---------

A --3-----3------5-----5---------0----3---0---3--------3--------3-------

D ------------------------------------------------3---------3-----------



Chorus



E -----------------------------------------

B -----------------------------------------

G -----------------------------------------

D --55555555--77777777---------------------

A --33333333--55555555--77777777--33333333-

D ----------------------77777777--33333333-



End With Chorus



E -----------------------------------------

B -----------------------------------------

G -----------------------------------------

D --55555555--77777777---------------------

A --33333333--55555555--77777777--33333333-

D ----------------------77777777--33333333-

Get this song at amazon.com      Ebay     Ringtones Ringtones  


Learn to play: Songwriting, Piano, Harmonica, Guitar
Also available at Muzikum: Blink 182 - Adams Song lyrics

Related Blink 182 Tabs

Romeo & Rebecca tabs
Anthem Pt. 2 tabs
Violence tabs
Man Overboard (intro) tabs
What Went Wrong Clarinet Solo tabs
The Girl Next Door tabs
Dick Lips tabs
Adams Song Piano tabs
21 Days3 tabs
Dead Mans Cure tabs
Don't Tell Me That Its Over tabs
Fucked Up My Life tabs
Wrecked Him tabs
Time To Break Up tabs
Stockholm Syndrome tabs
M&m's tabs
Ben Wah Balls tabs
Asthenia tabs
Pathetic Live tabs
Feeling This Live tabs


Guitar Tabs









All tabs are property and copyright of their owners. All tabs provided for educational purposes only. Privacy Policy, DMCA