Blink 182

Adam\'s Song Bass Tabs



More from Blink 182

Blink 182 Tabs
Blink 182 Chords
Blink 182 Bass
Blink 182 Lyrics



INTRO - No bass

VERSE

G|----------------------------------|----------------------------------|
D|----------------------------------|----------------------------------|
A|-3---3---3---3---3---3---3---3----|----------------------------------|
E|----------------------------------|-1---1---1---1---1---1---1---1----|
1 + 2 + 3 + 4 + 1 + 2 + 3 + 4 +
G|----------------------------------|----------------------------------|
D|----------------------------------|----------------------------------|
A|----------------------------------|----------------------------------|
E|-5---5---5---5---5---5---5---5----|-1---1---1---1---1---1---1---1----|
1 + 2 + 3 + 4 + 1 + 2 + 3 + 4 +

G|----------------------------------|----------------------------------|
D|----------------------------------|----------------------------------|
A|-3---3---3---3---3---3---3---3----|----------------------------------|
E|----------------------------------|-1---1---1---1---1---1---1---1----|
1 + 2 + 3 + 4 + 1 + 2 + 3 + 4 +
G|----------------------------------|----------------------------------|
D|----------------------------------|----------------------------------|
A|----------------------------------|----------------------------------|
E|-5---5---5---5---5---5---5---5----|-1---1---1---1---1---1---1---1----|
1 + 2 + 3 + 4 + 1 + 2 + 3 + 4 +

G|----------------------------------|----------------------------------|
D|----------------------------------|----------------------------------|
A|-3---3---3---3---3---3---3---3----|----------------------------------|
E|----------------------------------|-1---1---1---1---1---1---1---1----|
1 + 2 + 3 + 4 + 1 + 2 + 3 + 4 +
G|----------------------------------|----------------------------------|
D|----------------------------------|----------------------------------|
A|----------------------------------|----------------------------------|
E|-5---5---5---5---5---5---5---5----|-1---1---1---1---1---1---1---1----|
1 + 2 + 3 + 4 + 1 + 2 + 3 + 4 +

G|----------------------------------|----------------------------------|
D|----------------------------------|----------------------------------|
A|-3---3---3---3---3---3---3---3----|----------------------------------|
E|----------------------------------|-1---1---1---1---1---1---1---1----|
1 + 2 + 3 + 4 + 1 + 2 + 3 + 4 +
G|----------------------------------|----------------------------------|
D|----------------------------------|----------------------------------|
A|----------------------------------|----------------------------------|
E|-5---5---5---5---5---5---5---5----|-1---1---1---1---1---1---1---1----|
1 + 2 + 3 + 4 + 1 + 2 + 3 + 4 +

INTERLUDE

G|----------------------------------|----------------------------------|
D|-5--------------------------------|----------------------------------|
A|-3--------------------------------|----------------------------------|
E|----------------------------------|----------------------------------|
1 + 2 + 3 + 4 + 1 + 2 + 3 + 4 +
G|----------------------------------|----------------------------------|
D|----------------------------------|----------------------------------|
A|----------------------------------|----------------------------------|
E|----------------------------------|----------------------------------|
1 + 2 + 3 + 4 + 1 + 2 + 3 + 4 +

G|----------------------------------|----------------------------------|
D|----------------------------------|----------------------------------|
A|-3---3---3---3---3---3---3---3----|-5---5---5---5---5---5---5---5----|
E|----------------------------------|----------------------------------|
1 + 2 + 3 + 4 + 1 + 2 + 3 + 4 +
G|----------------------------------|----------------------------------|
D|----------------------------------|----------------------------------|
A|----------------------------------|----------------------------------|
E|-5---5---5---5---5---5---5---5----|-1---1---1---1---1---1---1---1----|
1 + 2 + 3 + 4 + 1 + 2 + 3 + 4 +

CHORUS

G|----------------------------------|----------------------------------|
D|----------------------------------|----------------------------------|
A|-3---3---3---3---3---3---3---3----|-5---5---5---5---5---5---5---5----|
E|----------------------------------|----------------------------------|
1 + 2 + 3 + 4 + 1 + 2 + 3 + 4 +
G|----------------------------------|----------------------------------|
D|----------------------------------|----------------------------------|
A|----------------------------------|----------------------------------|
E|-5---5---5---5---5---5---5---5----|-1---1---1---1---1---1---1---1----|
1 + 2 + 3 + 4 + 1 + 2 + 3 + 4 +
G|----------------------------------|----------------------------------|
D|----------------------------------|----------------------------------|
A|-3---3---3---3---3---3---3---3----|-5---5---5---5---5---5---5---5----|
E|----------------------------------|----------------------------------|
1 + 2 + 3 + 4 + 1 + 2 + 3 + 4 +
G|----------------------------------|----------------------------------|
D|----------------------------------|----------------------------------|
A|----------------------------------|-8---8---8---8---8---8---8---8----|
E|-5---5---5---5---5---5---5---5----|----------------------------------|
1 + 2 + 3 + 4 + 1 + 2 + 3 + 4 +

G|----------------------------------|----------------------------------|
D|-5---5---5---5---5---5---5---5----|-7---7---7---7---7---7---7---7----|
A|-3---3---3---3---3---3---3---3----|-5---5---5---5---5---5---5---5----|
E|----------------------------------|----------------------------------|
1 + 2 + 3 + 4 + 1 + 2 + 3 + 4 +
G|----------------------------------|----------------------------------|
D|-7---7---7---7---7---7---7---7----|-10--10--10--10--10--10--10--10---|
A|-0---0---0---0---0---0---0---0----|-8---8---8---8---8---8---8---8----|
E|----------------------------------|----------------------------------|
1 + 2 + 3 + 4 + 1 + 2 + 3 + 4 +

G|----------------------------------|----------------------------------|
D|-5---5---5---5---5---5---5---5----|-7---7---7---7---7---7---7---7----|
A|-3---3---3---3---3---3---3---3----|-5---5---5---5---5---5---5---5----|
E|----------------------------------|----------------------------------|
1 + 2 + 3 + 4 + 1 + 2 + 3 + 4 +
G|----------------------------------|----------------------------------|
D|-7---7---7---7---7---7---7---7----|-10--10--10--10--10--10--10--10---|
A|-0---0---0---0---0---0---0---0----|-8---8---8---8---8---8---8---8----|
E|----------------------------------|----------------------------------|
1 + 2 + 3 + 4 + 1 + 2 + 3 + 4 +

INTERLUDE 2 No bass

VERSE
INTERLUDE
CHORUS

INTERLUDE 3

G|----------------------------------|---------5-----------5-------5----|
D|---------5-----------5-------5----|-3---3-------3---3-------3--------|
A|-3---3-------3---3-------3--------|----------------------------------|
E|----------------------------------|----------------------------------|
1 + 2 + 3 + 4 + 1 + 2 + 3 + 4 +

G|---------7-----------7-------7----|---------5-----------5-------5----|
D|-5---5-------5---5-------5--------|-3---3-------3---3-------3--------|
A|----------------------------------|----------------------------------|
E|----------------------------------|----------------------------------|
1 + 2 + 3 + 4 + 1 + 2 + 3 + 4 +

G|----------------------------------|---------5-----------5-------5----|
D|---------5-----------5-------5----|-3---3-------3---3-------3--------|
A|-3---3-------3---3-------3--------|----------------------------------|
E|----------------------------------|----------------------------------|
1 + 2 + 3 + 4 + 1 + 2 + 3 + 4 +

G|---------7-----------7-------7----|---------9---------------5--------|
D|-5---5-------5---5-------5--------|-7---7-------7---3---3-------3----|
A|----------------------------------|----------------------------------|
E|----------------------------------|----------------------------------|
1 + 2 + 3 + 4 + 1 + 2 + 3 + 4 +

G|----------------------------------|---------5-----------5-------5----|
D|---------5-----------5-------5----|-3---3-------3---3-------3--------|
A|-3---3-------3---3-------3--------|----------------------------------|
E|----------------------------------|----------------------------------|
1 + 2 + 3 + 4 + 1 + 2 + 3 + 4 +

G|---------7-----------7-------7----|---------5-----------5-------5----|
D|-5---5-------5---5-------5--------|-3---3-------3---3-------3--------|
A|----------------------------------|----------------------------------|
E|----------------------------------|----------------------------------|
1 + 2 + 3 + 4 + 1 + 2 + 3 + 4 +

G|----------------------------------|---------5-----------5-------5----|
D|---------5-----------5-------5----|-3---3-------3---3-------3--------|
A|-3---3-------3---3-------3--------|----------------------------------|
E|----------------------------------|----------------------------------|
1 + 2 + 3 + 4 + 1 + 2 + 3 + 4 +

G|---------7-----------7-------7----|---------9---------------5--------|
D|-5---5-------5---5-------5--------|-7---7-------7---3---3-------3----|
A|----------------------------------|----------------------------------|
E|----------------------------------|----------------------------------|
1 + 2 + 3 + 4 + 1 + 2 + 3 + 4 +

G|----------------------------------|---------5-----------5-------5----|
D|---------5-----------5-------5----|-3---3-------3---3-------3--------|
A|-3---3-------3---3-------3--------|----------------------------------|
E|----------------------------------|----------------------------------|
1 + 2 + 3 + 4 + 1 + 2 + 3 + 4 +

G|---------7-----------7-------7----|---------5-----------5-------5----|
D|-5---5-------5---5-------5--------|-3---3-------3---3-------3--------|
A|----------------------------------|----------------------------------|
E|----------------------------------|----------------------------------|
1 + 2 + 3 + 4 + 1 + 2 + 3 + 4 +

G|----------------------------------|---------5-----------5-------5----|
D|---------5-----------5-------5----|-3---3-------3---3-------3--------|
A|-3---3-------3---3-------3--------|----------------------------------|
E|----------------------------------|----------------------------------|
1 + 2 + 3 + 4 + 1 + 2 + 3 + 4 +

G|---------7-----------7-------7----|---------9---------------5--------|
D|-5---5-------5---5-------5--------|-7---7-------7---3---3-------3----|
A|----------------------------------|----------------------------------|
E|----------------------------------|----------------------------------|
1 + 2 + 3 + 4 + 1 + 2 + 3 + 4 +

CHORUS

END ON

G|----------------------------------|----------------------------------|
D|-5--------------------------------|----------------------------------|
A|-3--------------------------------|----------------------------------|
E|----------------------------------|----------------------------------|
1 + 2 + 3 + 4 + 1 + 2 + 3 + 4 +



Get this song at amazon.com      Ebay     Ringtones Ringtones  


Learn to play: Songwriting, Piano, Harmonica, Guitar
Also available at Muzikum: Blink 182 - Adams Song lyrics

Related Blink 182 Bass Tabs

Enema bass
Waggy bass
Dysentery Gary (the Correct Bridge) bass
The anthem pt2 bass
First Date bass
Carousel (full Length) bass
Anthem bass
Carousel Buddha bass
Down bass
Mothers Day bass
Longest Line bass
Daze Gone By bass
Satans Theme bass
Wrecked Him bass
A Letter To Elise bass
The Party Song bass
The Whole 'blink 182' Album bass
Enthused (100% Perfect) bass
Wont Be Home For Christmas bass
Satan Tune bass


Guitar Tabs









All tabs are property and copyright of their owners. All tabs provided for educational purposes only. Privacy Policy, DMCA