Blink 182

Action(feeling This) Bass Tabs



More from Blink 182

Blink 182 Tabs
Blink 182 Chords
Blink 182 Bass
Blink 182 Lyrics



Intro: No Bass


Verse I:
G|--------------------------------------------------------------------------------||
D|-----------------------6---------------------------------------6----------------||
A|-77777-0-2-00-14-12-0-4-444-0-2222-0000--77777-0-2-00-14-12-0-4-444-0-2222-0000-||
E|--------------------------------------------------------------------------------||


verse I:
G|--------------------------------------------------------------------------------||
D|-----------------------6---------------------------------------6----------------||
A|-77777-0-2-00-14-12-0-4-444-0-2222-0000--77777-0-2-00-14-12-0-4-444-0-2222-0000-||
E|--------------------------------------------------------------------------------||


Chorus:
G|-------------------------------------------------------------------------||
D|-------------------------------------------------------------------------||
A|----------22222222-44444444-00000000----------22222222-44444444-00000000-||
E|-00000000----------------------------00000000----------------------------||


Intro: No Bass

verse II:
G|--------------------------------------------------------------------------------||
D|-----------------------6---------------------------------------6----------------||
A|-77777-0-2-00-14-12-0-4-444-0-2222-0000--77777-0-2-00-14-12-0-4-444-0-2222-0000-||
E|--------------------------------------------------------------------------------||


verse II:
G|----------------------------------------||
D|-----------------------6----------------||
A|-77777-0-2-00-14-12-0-4-444-0-2222-0000-||
E|----------------------------------------||


Chorus:
G|-------------------------------------------------------------------------||
D|-------------------------------------------------------------------------||
A|----------22222222-44444444-00000000----------22222222-44444444-00000000-||
E|-00000000----------------------------00000000----------------------------||




Verse III:
G|------||
D|------||
A|-7~~~-||
E|------||

Verse III:
G|------------------------------------------------------------------||
D|------------------------------------------------------------------||
A|-77777777-22222222-44444444-00000000-77777777-22222222-44444444-0-||
E|------------------------------------------------------------------||


Chorus:
G|-------------------------------------------------------------------------||
D|-------------------------------------------------------------------------||
A|-77777777-22222222-44444444-00000000-77777777-22222222-44444444-00000000-||
E|-------------------------------------------------------------------------||



Chorus:
G|-------------------------------------------------------------------------||
D|-------------------------------------------------------------------------||
A|-77777777-22222222-44444444-00000000-77777777-22222222-44444444-00000000-||
E|-------------------------------------------------------------------------||

Chorus:
G|-------------------------------------------------------------------------||
D|-------------------------------------------------------------------------||
A|-77777777-22222222-44444444-00000000-77777777-22222222-44444444-00000000-||
E|-------------------------------------------------------------------------||

Chorus:
G|-------------------------------------------------------------------------||
D|-------------------------------------------------------------------------||
A|-77777777-22222222-44444444-00000000-77777777-22222222-44444444-00000000-||
E|-------------------------------------------------------------------------||

End Chorus:
G|------------------------||
D|------------------------||
A|-77777777-22222222-4~~~-||
E|------------------------||


LYRICS




(Get ready for action!)
I got to regret right now (I知 feeling this)
The air is so cold and numb (I知 feeling this)
Let me go in her room (I知 feeling this)
I love all the things you do (I知 feeling this)
Show me the way to bed (I知 feeling this)
Show me the way you move (I知 feeling this)
Fucking is such a blurr (I知 feeling this)
I love all the things you do (I知 feeling this)

Fate fell short this time
Your smile fades in the summer
Place your hand in mine
I値l leave when I wanna

Where do we go from here
Turn all the lights down now
Smiling from ear to ear (I知 feeling this)
Our breathing has got too loud (I知 feeling this)
Show me the bedroom floor (I知 feeling this)
Show me the bathroom mirror (I知 feeling this)
We池e taking this way too slow (I知 feeling this)
Take me away from here (I知 feeling this)

Fate fell short this time
Your smile fades in the summer
Place your hand in mine
I値l leave when I wanna

This place was never the same again
After you came and went
How can you say you meant anything different
To anyone standing alone
On the street with a cigarette
On the first night we met

Look to the past
And remember her smile
And maybe tonight
I can breathe for awhile
I'm not in the seat
I think I'm fallin' asleep
But then all that it means is
I'll always be dreaming of you

Fate fell short this time
Your smile fades in the summer
Place your hand in mine
I値l leave when I wanna

Fate fell short this time
Your smile fades in the summer
Place your hand in mine
I値l leave when I wanna

Fate fell short this time
Your smile fades in the summer (So lost and disillusioned)
Place your hand in mine
I値l leave when I wanna (So lost and disillusioned)

Fate fell short this time (I'll be alone if you're feeling)
Your smile fades in the summer (So lost and disillusioned)
Place your hand in mine (I'll be alone if you're feeling)
I値l leave when I wanna

Fate fell short this time (I'll be alone if you're feeling)
Your smile fades in the summer (So lost and disillusioned)
Place your hand in mine (I'll be alone if you're feeling)
I値l leave when I wanna (So lost and disillusioned)



Get this song at amazon.com      Ebay     Ringtones Ringtones  


Learn to play: Songwriting, Piano, Harmonica, Guitar
More Blink 182 lyrics available at Muzikum

Related Blink 182 Bass Tabs

Apple Shampoo bass
Good Times bass
A Letter To Elise bass
Shut Up bass
Anthem part 21 bass
Fuck A Dog bass
Dammit Live (warped Tour) bass
Man Overboard Intro(easy Way) bass
Carousel Live bass
Man Overboard bass
Happy Holidays You Bastard bass
21 Days bass
Everytime I Look For You bass
Don\'t Leave Me bass
Tv bass
Asthenia(perfect) bass
Wirecked Him bass
Family Reuinion bass
Dont Tell Me Its Over bass
Family Reunion bass


Guitar Tabs









All tabs are property and copyright of their owners. All tabs provided for educational purposes only. Privacy Policy, DMCA

Online converter - videoconverter.com