Blink 182

Action Bass Tabs



More from Blink 182

Blink 182 Tabs
Blink 182 Chords
Blink 182 Bass
Blink 182 Lyrics



Starts with first verse
G:----------------------------------------------|
D:--9-9-7---------------------------------------|
A:-7-7----777--9-9-7------11-11-9------7-7-5----|
E:------------7-7----777-9--9-----999-5-5----555|

Double Picked
Chorus
G:----------------------------------------------|
D:----------------------------------------------|
A:-7777-----------------------------------------|
E:------7777-9999-5555--------------------------|

Bass Starts on Third Line of Verse
G:----------------------------------------------|
D:----------------------------------------------|
A:--11-11-9------7-7-5--------------------------|
E:-9--9-----999-5-5----555----------------------|



Get this song at amazon.com      Ebay     Ringtones Ringtones  


Learn to play: Songwriting, Piano, Harmonica, Guitar
Also available at Muzikum: Blink 182 - Action lyrics

Related Blink 182 Bass Tabs

Blowjob Song bass
After Midnight bass
Ben Wah Balls bass
Im Sorry bass
Buddha Full Album - Bass Tab bass
Im Lost Without You bass
Does My Breath Smell bass
Boring bass
Cacophony bass
Snake Charmer bass
Toast And Bananas bass
Satans Theme bass
Fallen Interlude bass
Family Reuinion bass
Blew Job bass
Marlboro Man bass
After Midnight Live bass
Chesire Cat bass
A Letter To Elise bass
Dysentery Gary bass


Guitar Tabs









All tabs are property and copyright of their owners. All tabs provided for educational purposes only. Privacy Policy, DMCA