Blink 182

A New Hope Bass Tabs



More from Blink 182

Blink 182 Tabs
Blink 182 Chords
Blink 182 Bass
Blink 182 Lyrics




A New Hope


Blink 182
Mark: Bass




G||-------------------------|------------------------|------------------------|
D||*------------------------|------------------------|------------------------|
A||*------------------------|------------------------|------------------------|
E||---3----3--3--L--3--3----|--3----3--3--L--3--3----|--5----5--5--L--5--5----|



------------------------|------------------------|------------------------|
------------------------|------------------------|------------------------|
------------------------|------------------------|------------------------|
--3----3--3--L--3--3----|--5----5--5--L--5--5----|--5----5--5--L--5--5----|



------------------------|-------------------------||-------------------------|
------------------------|------------------------*||*------------------------|
--3----3--3--L--3--3----|--5----5--5--L--5--5----*||*------------------------|
------------------------|-------------------------||---3--3----3--3--3----3--|


------------------------|------------------------|------------------------|
------------------------|------------------------|------------------------|
------------------------|------------------------|------------------------|
--3--3----3--3--3----3--|--3--3----3--3--3----3--|--3--3----3--3--3----3--|



------------------------|------------------------|------------------------|
------------------------|------------------------|------------------------|
------------------------|------------------------|--3--3----3--3--3----3--|
--5--5----5--5--5----5--|--5--5----5--5--5----5--|------------------------|



-------------------------||------------------------|-----------------------|
------------------------*||------------------------|-----------------------|
--5--5----5--5--5----5--*||------------------------|--3--3----5--L---------|
-------------------------||--3--3----3--3----3--0--|------------------0----|



-----------------------|----------------------|----------------------|
-----------------------|----------------------|----------------------|
-----------------------|--3------5--L---------|----------------------|
--3----3----3--3--3----|-----------------0----|--0--0----0--0--------|



-------------------------|------------------------|------------------------|
-------------------------|------------------------|------------------------|
--3--3--3----5--5--5--0--|------------------------|------------------------|
-------------------------|--3----3--3--L--3--3----|--3----3--3--L--3--3----|


------------------------|------------------------|------------------------|
------------------------|------------------------|------------------------|
------------------------|--3------5--L--5--5--0--|------------------------|
--3----3--3--3--3--3----|------------------------|--3----3--3--3--3--3----|



------------------------|----------------------|-------------------------|
------------------------|----------------------|-------------------------|
--3------5--L--5--5--0--|----------------------|--3--3--3----5--5--5--0--|
------------------------|--0----0----0--0------|-------------------------|



--------------------------|--------------------|----------------------|
--------------------------|--------------------|----------------------|
--------------------------|--------------------|----------------------|
--3--3--3--3--3--3--3--3--|--3-----------------|--5--5------5--5------|


----------------------|----------------------|----------------------|
----------------------|----------------------|----------------------|
----------------------|--3--3------3--3------|--3--3------3----0----|
--5--5------5--5------|----------------------|----------------------|


-------------------------|-------------------------|-------------------------|
-------------------------|-------------------------|-------------------------|
-------------------------|-------------------------|-------------------------|
--3--3-----3--3--3--5----|--3--3-----3--3--3--2----|--3--3-----3--3--3--5----|



-------------------------|----------------------|-----------------------|
-------------------------|----------------------|-----------------------|
-------------------------|----------------------|-----------------------|
--3--3-----3--3--3--2----|--5--5------5--5------|--5--5------5--5----5--|



------------------------|----------------------|------------------------|
------------------------|----------------------|------------------------|
--3--3----3--3--3----3--|--5--5----5--5--------|------------------------|
------------------------|----------------------|--3--3----3--3--3----3--|



------------------------|------------------------|------------------------|
------------------------|------------------------|------------------------|
------------------------|------------------------|------------------------|
--3--3----3--3--3----3--|--3--3----3--3--3----3--|--3--3----3--3--3----3--|


------------------------|------------------------|------------------------|
------------------------|------------------------|------------------------|
------------------------|------------------------|--3--3----3--3--3----3--|
--5--5----5--5--5----5--|--5--5----5--5--5----5--|------------------------|



------------------------|------------------------|------------------------|
------------------------|------------------------|------------------------|
--5--5----5--5--5----5--|------------------------|------------------------|
------------------------|--3--3----3--3--3----3--|--3--3----3--3--3----3--|



------------------------|------------------------|------------------------|
------------------------|------------------------|------------------------|
------------------------|------------------------|------------------------|
--3--3----3--3--3----3--|--3--3----3--3--3----3--|--5--5----5--5--5----5--|



------------------------|------------------------|------------------------|
------------------------|------------------------|------------------------|
------------------------|--3--3----3--3--3----3--|--5--5----5--5--5----5--|
--5--5----5--5--5----5--|------------------------|------------------------|


------------------------|-----------------------|-----------------------|
------------------------|-----------------------|-----------------------|
------------------------|--3--3----5--L---------|-----------------------|
--3--3----3--3----3--0--|------------------0----|--3----3----3--3--3----|



----------------------|----------------------|-------------------------|
----------------------|----------------------|-------------------------|
--3------5--L---------|----------------------|--3--3--3----5--5--5--0--|
-----------------0----|--0--0----0--0--------|-------------------------|



------------------------|------------------------|------------------------|
------------------------|------------------------|------------------------|
------------------------|------------------------|------------------------|
--3----3--3--L--3--3----|--3----3--3--L--3--3----|--3----3--3--3--3--3----|



------------------------|------------------------|------------------------|
------------------------|------------------------|------------------------|
--3------5--L--5--5--0--|------------------------|--3------5--L--5--5--0--|
------------------------|--3----3--3--3--3--3----|------------------------|



----------------------|-------------------------|--------------------------|
----------------------|-------------------------|--------------------------|
----------------------|--3--3--3----5--5--5--0--|--------------------------|
--0----0----0--0------|-------------------------|--3--3--3--3--3--3--3--3--|


--------------------|----------------------|----------------------|
--------------------|----------------------|----------------------|
--------------------|----------------------|----------------------|
--3-----------------|--5--5------5--5------|--5--5------5--5------|



----------------------|----------------------|-------------------------|
----------------------|----------------------|-------------------------|
--3--3------3--3------|--3--3------3----0----|-------------------------|
----------------------|----------------------|--3--3-----3--3--3--5----|



-------------------------|-------------------------|-------------------------|
-------------------------|-------------------------|-------------------------|
-------------------------|-------------------------|-------------------------|
--3--3-----3--3--3--2----|--3--3-----3--3--3--5----|--3--3-----3--3--3--2----|



----------------------|-----------------------|------------------------|
----------------------|-----------------------|------------------------|
----------------------|-----------------------|--3--3----3--3--3----3--|
--5--5------5--5------|--5--5------5--5----5--|------------------------|

----------------------|-------------------|-------------------------|
----------------------|-------------------|--5----5--5--5--5--5--5--|
--5--5----5--5--------|-------------------|-------------------------|
----------------------|--3----------------|-------------------------|


-------------------------|-------------------------|-------------------------|
--5----5--5--5--5--5--5--|--7----7--7--7--7--7--7--|--5----5--5--5--5--5--5--|
-------------------------|-------------------------|-------------------------|
-------------------------|-------------------------|-------------------------|



-------------------------|-------------------------|-------------------------|
-------------------------|-------------------------|-------------------------|
-------------------------|-------------------------|--3----3--3--3--3--3--3--|
--5----5--5--5--5--5--5--|--5----5--5--5--5--5--5--|-------------------------|



-------------------------|--------------------------|-------------------------|
-------------------------|--------------------------|--5----5--5--5--5--5--5--|
--5----5--5--5--5--5--5--|--------------------------|-------------------------|
-------------------------|--3--3--3--3--3--3--3--3--|-------------------------|



-------------------------|-------------------------|-------------------------|
--5----5--5--5--5--5--5--|--7----7--7--7--7--7--7--|--5----5--5--5--5--5--5--|
-------------------------|-------------------------|-------------------------|
-------------------------|-------------------------|-------------------------|



-------------------------|-------------------------|-------------------------|
-------------------------|-------------------------|-------------------------|
-------------------------|-------------------------|--3----3--3--3--3--3--3--|
--5----5--5--5--5--5--5--|--5----5--5--5--5--5--5--|-------------------------|



-------------------------|--------------------------|--------------------------|
-------------------------|--------------------------|--------------------------|
--5----5--5--5--5--5--5--|--------------------------|--------------------------|
-------------------------|--3--3--3--3--3--3--3--3--|--3--3--3--3--3--3--3--3--|



--------------------------|--------------------------|
--------------------------|--------------------------|
--------------------------|--------------------------|
--3--3--3--3--3--3--3--3--|--3--3--3--3--3--3--3--3--|



--------------------------|-------------------------|-------------------------|
--------------------------|-------------------------|-------------------------|
--------------------------|-------------------------|--3--3--3--3--3--3--3----|
--5--5--5--5--5--5--5--5--|--5--5--5--5--5--5--5----|-------------------------|



-------------------------|------------------------|------------------------|
-------------------------|------------------------|------------------------|
--5--5--5--5--5--5--5----|------------------------|--5--5----5--5--5----5--|
-------------------------|--3--3----3--3--3----3--|------------------------|


------------------------|------------------------|------------------------|
------------------------|------------------------|------------------------|
--3--3----3--3--3----7--|--7--7----5--5--5----5--|------------------------|
------------------------|------------------------|--3--3----3--3--3----3--|



------------------------|------------------------|------------------------|
------------------------|------------------------|------------------------|
--5--5----5--5--5----5--|--3--3----3--3--3----7--|--7--7----5--5--5----5--|
------------------------|------------------------|------------------------|



------------------------|------------------------|------------------------|
------------------------|------------------------|------------------------|
------------------------|--5--5----5--5--5----5--|--3--3----3--3--3----7--|
--3--3----3--3--3----3--|------------------------|------------------------|



------------------------|------------------------|------------------------|
------------------------|------------------------|------------------------|
--7--7----5--5--5----5--|------------------------|--5--5----5--5--5----5--|
------------------------|--3--3----3--3--3----3--|------------------------|



--------------------------|--------------------||-----------------------|
--------------------------|--------------------||*----------------------|
--3--3--3--3--3--3--3--7--|--7-----------------||*----------------------|
--------------------------|--------------------||---5--5------5--5------|



----------------------|----------------------|----------------------|
----------------------|----------------------|----------------------|
----------------------|--3--3------3--3------|--3--3------3----0----|
--5--5------5--5------|----------------------|----------------------|



-------------------------|-------------------------|-------------------------|
-------------------------|-------------------------|-------------------------|
-------------------------|-------------------------|-------------------------|
--3--3-----3--3--3--5----|--3--3-----3--3--3--2----|--3--3-----3--3--3--5----|



--------------------------||-------------------------|------------------------|
-------------------------*||-------------------------|------------------------|
-------------------------*||-------------------------|------------------------|
--3--3-----3--3--3--2-----||--3--3-----3--3--3--2----|--5--5----5--5--5----5--|



------------------------|------------------------|------------------------|
------------------------|------------------------|------------------------|
------------------------|--3--3----3--3--3----3--|--3--3----3--3--3----3--|
--5--5----5--5--5----5--|------------------------|------------------------|



------------------------|------------------------|------------------------|
------------------------|------------------------|------------------------|
------------------------|------------------------|------------------------|
--3--3----3--3--3----3--|--3--3----3--3--3----3--|--3--3----3--3--3----3--|



------------------------|------------------------|------------------------|
------------------------|------------------------|------------------------|
------------------------|------------------------|------------------------|
--3--3----3--3--3----3--|--5--5----5--5--5----5--|--5--5----5--5--5----5--|



-------------------|-------------------|-------------------|-------------------|
-------------------|-------------------|-------------------|-------------------|
--3----------------|--5----------------|-------------------|-------------------|
-------------------|-------------------|--3----------------|--L----------------|



-------------------||
-------------------||
-------------------||
--L----------------||


Tablature Legend
----------------
L - tied note



Get this song at amazon.com      Ebay     Ringtones Ringtones  


Learn to play: Songwriting, Piano, Harmonica, Guitar
Also available at Muzikum: Blink 182 - A New Hope lyrics

Related Blink 182 Bass Tabs

Dammit (best You'll Find) bass
Carousel Buddha bass
Feels So Good bass
Don\'t Leave Me bass
Family Reunion bass
Natives bass
Don't Leave Me (power Chord Way If You Get Bored) bass
Point Of View bass
Online Song bass
Carousel Cheshire Cat bass
A Letter To Elise bass
Cheshire Cat bass
Down bass
Anthem Part 2 (power Chord Style For People Who Get Bored) bass
Heart\'s All Gone bass
Peggy Sue bass
Josie (with Lyrics) bass
Ghost On The Dance Floor bass
Man Overboard bass
Happy Holidays, You Basterd bass


Guitar Tabs









All tabs are property and copyright of their owners. All tabs provided for educational purposes only. Privacy Policy, DMCA