Blink 182

A Letter To Elise Bass Tabs



More from Blink 182

Blink 182 Tabs
Blink 182 Chords
Blink 182 Bass
Blink 182 Lyrics




Intro
G-----------------------------------------------------------------------------|
D-----------------------------------------------------0000000000000000--------|
A-0000000000000000-------------------2222222222222222-------------------------|
E-----------------000000000000000000------------------------------------------|

Verse Elise it doesnt matter what you say...
G--------------------------------------------------------------------|
D--------------------------------------------------------------------|
A--------------------------------------------------555555555555555---|
E-5555555555555555-4444444444444444-222222222222222------------------|

G---------------------------------------|
D-2222222222222222-4444444444444444-----|
A---------------------------------------|
E---------------------------------------|

G-----------------------------------|
D-2222222222222222-5555555555555555-|
A-----------------------------------|
E-----------------------------------|

G----------------|
D-22-44-22-44----|
A----------------|
E----------------|

G-------------------------------------|
D-------------------------------------|
A-444444444444444444-2222222222222222-|
E-------------------------------------|

G----------------|
D---2-4-0--------|
A-0--------------|
E----------------|

G-----------------------------------------------------------------|
D-----------------222222222222222-44444444444444-0000000000000000-|
A-0000000000000000------------------------------------------------|
E-----------------------------------------------------------------|

Outro
G----------------|
D----------------|
A----------------|
E-0--------------|

The other parts i couldnt name them listen to the song then you
know it.



Get this song at amazon.com      Ebay     Ringtones Ringtones  


Learn to play: Songwriting, Piano, Harmonica, Guitar
Also available at Muzikum: Blink 182 - A Letter To Elise lyrics

Related Blink 182 Bass Tabs

Untitled bass
Penetrated bass
Hold On bass
Zulu bass
I'm Lost Without You bass
The Fallen Interlude bass
Going Away To College bass
Time bass
Emo bass
Not Now 100% Correct bass
Don't Leave Me (power Chord Way If You Get Bored) bass
1st Date bass
Carousel Live bass
T V bass
All Teh Small Things bass
My Pet Sally bass
The Country Song (my Other One Disapeared) bass
I Miss You bass
Good Times bass
Online Songs bass


Guitar Tabs









All tabs are property and copyright of their owners. All tabs provided for educational purposes only. Privacy Policy, DMCA