Blink 182

21 Days2 Tabs



More from Blink 182

Blink 182 Tabs
Blink 182 Chords
Blink 182 Bass
Blink 182 Lyrics

Bass plays a continuous D through introduction, listen to hear when you come in.



/ = slide up
= slide down

Clean, no distortion
e |----------------------------------------------|  
B |----------------------------------------------|  
G |--2-/-11--7-/-11--2---2-/-11--11--9--7--2--|  
D |----------------------------------------------|  
A |----------------------------------------------|  
E |----------------------------------------------|  

Repeat a few times then play:

(Part B)
Strumming with Distortion
e |-------------------------------------------|
B |-------------------------------------------|
G |-2---11---7---11---2---2---11---9---7---2--|
D |-0---0----0---0----0---0---0----0---0---0--|
A |-------------------------------------------|
E |-------------------------------------------|

D5                                   G5              E5
My mind wonders as I?m trying not to fall in love with you.
D5                          G5                   E5
?Cause every time I wake I ponder on my  mistakes of
D5                                G5                    E5
what I said. It is always my self esteem that I should lose
D5                                     G5             E5    
Playing those stupid games as I always end up chasing you

(Play part B)

E5      G5               D5            
I can?t help myself anymore
E5       G5                    D5
Rehearsing my thoughts as I?m too scared to come to your door
E5          G5                         D5
I pushed it all aside just to stand next to you
E5        G5                              D5      Db5      C5        A5
But now you wont talk to me for something that    I       didn?t    do.

It?s not gonna work

D5
(There's a little Bass type thing here that you can work out yourself,
it?s pretty simple to play but a bit of a mish to tab out, besides you didn?t I?d do all of it, did you?)

And I?m trying not to think of you

I?m all confused because I think of the things that I would do

I?m all shook up as I get all nervous in side

My emotions are something that I will always hide


Clean, no distortion
e|----------------------------------------------------|
B|------------7---8---7------------------7------------|
G|---7---9--------------9------7---9--------9----7---7|
D|----------------------------------------------------|
A|----------------------------------------------------|
E|----------------------------------------------------|      X2


Strumming with Distortion
e|----------------------------------------------------|
B|----------------------------------------------------|
G|---7---9---11---12---9---7---7---9---12---9---7---7-|
D|---0---0---0----0----0----0---0---0---0---0---0---0-|
A|----------------------------------------------------|
E|----------------------------------------------------|

Repeat till end
Get this song at amazon.com      Ebay     Ringtones Ringtones  


Learn to play: Songwriting, Piano, Harmonica, Guitar
More Blink 182 lyrics available at Muzikum

Related Blink 182 Tabs

Mutt Live tabs
What Went Wrong Clarinet Solo tabs
Lucky tabs
Anthem Pt. 2 tabs
Anthem Intro tabs
Shut Up tabs
Adams Song(sweet) tabs
Depends tabs
Sumo Song tabs
Dancing With Myself Intro tabs
Genie In A Bottle Live tabs
Everytime I Look For You tabs
Stockholm Syndrome tabs
Feelin This tabs
Blink 182 tabs
Sometimes tabs
Rollercoaster tabs
Dancing With Myself tabs
Adams Song Interlude tabs
Shit Piss tabs


Guitar Tabs









All tabs are property and copyright of their owners. All tabs provided for educational purposes only. Privacy Policy, DMCA