Black Label Society

Born To Lose Bass Tabs



More from Black Label Society

Black Label Society Tabs
Black Label Society Chords
Black Label Society Bass
Black Label Society Lyrics



G||-----------------------------|---------------------------------||
D||*----------------------------|----------------------5h7h5-----*||
A||*--5h7-5h7----5--------------|--5h7-5h7---------5---------7h5-*||
E||-----------------7-6-0-5-3---|-------------5--7---7------------||



-----------------------------|---------------------------------||
*----------------------------|----------------------5h7h5-----*||
*--5h7-5h7----5--------------|--5h7-5h7---------5---------7h5-*||
-----------------7-6-0-5-3---|-------------5--7---7------------||



----------------------------|--------------------------------|
----------------------------|----------------------5h7h5-----|
--5h7-5h7----5--------------|--5h7-5h7---------5---------7h5-|
----------------7-6-0-5-3---|-------------5--7---7-----------|



----------------------------|--------------------------------|
----------------------------|----------------------5h7h5-----|
--5h7-5h7----5--------------|--5h7-5h7---------5---------7h5-|
----------------7-6-0-5-3---|-------------5--7---7-----------|



----------------------------|--------------------------------|
----------------------------|----------------------5h7h5-----|
--5h7-5h7----5--------------|--5h7-5h7---------5---------7h5-|
----------------7-6-0-5-3---|-------------5--7---7-----------|



----------------------------|--------------------------------|
----------------------------|----------------------5h7h5-----|
--5h7-5h7----5--------------|--5h7-5h7---------5---------7h5-|
----------------7-6-0-5-3---|-------------5--7---7-----------|



----------------------|--------------------|-------------------------|
----------------------|--------------------|----------------4--5-----|
--5h7--------------3--|------------3----3--|--5h7--------7--------3--|
--------0-------------|--------------------|--------0----------------|



--------------------|----------------------|--------------------|
--------------------|----------------------|--------------------|
----------------5---|--5h7--------------3--|------------3----3--|
------------7-------|--------0-------------|--------------------|



--------------------------||-----------------------------|
--------------------------||*----------------------------|
--------------------------||*--5h7-5h7----5--------------|
--7--7--6--6--5--5--3--3--||-----------------7-6-0-5-3---|



---------------------------------||----------------------------|
----------------------5h7h5-----*||----------------------------|
--5h7-5h7---------5---------7h5-*||--5h7-5h7----5--------------|
-------------5--7---7------------||----------------7-6-0-5-3---|



--------------------------------|----------------------------|
----------------------5h7h5-----|----------------------------|
--5h7-5h7---------5---------7h5-|--5h7-5h7----5--------------|
-------------5--7---7-----------|----------------7-6-0-5-3---|



--------------------------------|----------------------------|
----------------------5h7h5-----|----------------------------|
--5h7-5h7---------5---------7h5-|--5h7-5h7----5--------------|
-------------5--7---7-----------|----------------7-6-0-5-3---|



--------------------------------|----------------------------|
----------------------5h7h5-----|----------------------------|
--5h7-5h7---------5---------7h5-|--5h7-5h7----5--------------|
-------------5--7---7-----------|----------------7-6-0-5-3---|



--------------------------------|----------------------|--------------------|
----------------------5h7h5-----|----------------------|--------------------|
--5h7-5h7---------5---------7h5-|--5h7--------------3--|------------3----3--|
-------------5--7---7-----------|--------0-------------|--------------------|



-------------------------|--------------------|----------------------|
----------------4--5-----|--------------------|----------------------|
--5h7--------7--------3--|----------------5---|--5h7--------------3--|
--------0----------------|------------7-------|--------0-------------|



--------------------|--------------------------|
--------------------|--------------------------|
------------3----3--|--------------------------|
--------------------|--7--7--6--6--5--5--3--3--|



|---------------------------------------|
|*--------------------------------------|
|*--5h-7--7--7h-5-----5h-7--7--7h-5-----|
|------------------7-----------------7--|


3x
---------------------------------------||-----------------------------|
--------------------7h-8h-7--5--------*||--------------------7--------|
--5h-7--7--7h-5-----------------7--5--*||--5h-7--7--7h-5-----0--------|
-----------------7---------------------||-----------------7-----------|



|---------------------------------------|
|*--------------------------------------|
|*--5h-7--7--7h-5-----5h-7--7--7h-5-----|
|------------------7-----------------7--|



---------------------------------------||
--------------------7h-8h-7--5--------*||
--5h-7--7--7h-5-----------------7--5--*||
-----------------7---------------------||



---------------------------------------|
*--------------------------------------|
*--5h-7--7--7h-5-----5h-7--7--7h-5-----|
------------------7-----------------7--|


7x
---------------------------------------||-------------------|
--------------------7h-8h-7--5--------*||-------------------|
--5h-7--7--7h-5-----------------7--5--*||-------------------|
-----------------7---------------------||--6----------------|



-------------------|--------------------------------------|
-------------------|--------------------------------------|
-------------------|--5h-7--7--7h-5-----5h-7--7--7h-5-----|
--6----------------|-----------------7-----------------7--|



--------------------------------------|-------------------|-------------------|
--------------------7h-8h-7--5--------|-------------------|-------------------|
--5h-7--7--7h-5-----------------7--5--|-------------------|-------------------|
-----------------7--------------------|--6----------------|--6----------------|



--------------------------------------|--------------------------------------|
--------------------------------------|--------------------7h-8h-7--5--------|
--5h-7--7--7h-5-----5h-7--7--7h-5-----|--5h-7--7--7h-5-----------------7--5--|
-----------------7-----------------7--|-----------------7--------------------|



-------------------|-------------------|--------------------------------------|
-------------------|-------------------|--------------------------------------|
-------------------|-------------------|--5h-7--7--7h-5-----5h-7--7--7h-5-----|
--6----------------|--6----------------|-----------------7-----------------7--|



--------------------------------------|-------------------|-------------------|
--------------------7h-8h-7--5--------|-------------------|-------------------|
--5h-7--7--7h-5-----------------7--5--|-------------------|-------------------|
-----------------7--------------------|--6----------------|--6----------------|



|-----------------------------|---------------------------------||
|*----------------------------|----------------------5h7h5-----*||
|*--5h7-5h7----5--------------|--5h7-5h7---------5---------7h5-*||
|-----------------7-6-0-5-3---|-------------5--7---7------------||



----------------------------|--------------------------------|
----------------------------|----------------------5h7h5-----|
--5h7-5h7----5--------------|--5h7-5h7---------5---------7h5-|
----------------7-6-0-5-3---|-------------5--7---7-----------|



----------------------------|--------------------------------|
----------------------------|----------------------5h7h5-----|
--5h7-5h7----5--------------|--5h7-5h7---------5---------7h5-|
----------------7-6-0-5-3---|-------------5--7---7-----------|



----------------------------|--------------------------------|
----------------------------|----------------------5h7h5-----|
--5h7-5h7----5--------------|--5h7-5h7---------5---------7h5-|
----------------7-6-0-5-3---|-------------5--7---7-----------|



----------------------------|--------------------------------|
----------------------------|----------------------5h7h5-----|
--5h7-5h7----5--------------|--5h7-5h7---------5---------7h5-|
----------------7-6-0-5-3---|-------------5--7---7-----------|



----------------------|--------------------|-------------------------|
----------------------|--------------------|----------------4--5-----|
--5h7--------------3--|------------3----3--|--5h7--------7--------3--|
--------0-------------|--------------------|--------0----------------|



--------------------|----------------------|--------------------|
--------------------|----------------------|--------------------|
----------------5---|--5h7--------------3--|------------3----3--|
------------7-------|--------0-------------|--------------------|



-------------------------|-------------------------|-----------------------||
-------------------------|-------------------------|-----------------------||
-------------------------|-------------------------|-----------------------||
--7--7--6--6--5--5--3----|--7--7--6--6--5--5--3----|--7--7--6--6--5--------||

Taken from The BassMasta -- http://www.tabs-database.com



Get this song at amazon.com      Ebay     Ringtones Ringtones  


Learn to play: Songwriting, Piano, Harmonica, Guitar
Also available at Muzikum: Black Label Society - Born To Lose lyrics

Related Black Label Society Bass Tabs

Phoney Smiles & Fake Hellos bass
Sold My Soul bass
No More Tears bass
Born To Lose bass
Suicide Messiah bass
Bleed For Me bass
Sucide Messiah bass
Doomsday Jesus bass
Just Killing Time bass
Superterrorizer (100% Correct) bass
Bridge To Cross bass
Genocide Junkies bass
Berserkers bass
Refuse To Bow Down bass
Forever Down bass
Graveyard Disciples bass
Superterrorizer bass
Fire It Up (100%) bass
Demise Of Sanity bass
Been A Long Time ( No Solo ) bass


Guitar Tabs









All tabs are property and copyright of their owners. All tabs provided for educational purposes only. Privacy Policy, DMCA