Between The Buried And Me

Between The Buried And Me - Viridian Bass guitar tab

Tuning: C# Standard

high to low (E, B, F#, C#, G#)

This song is called viridian and it's

off BTBAM's newest album Colors.

The other tab wasn't wrong, it just

needed some parts of it fixed. So, I

edited some parts in the other tab so

mine should be close to perfect. Hope

you enjoy!

|---------------------|

|---------------------|

|-4~------------------|

|---------------------|

|---------------------|

|---------------------|

|---------------------|

|---------------------|

|---------------------|

|-9-12-10~------------|x4

Wait until the guitar intro stops.

|---------------16h17~---------------------19h21~------19-17-|

|-----------14---------------17---16---14--------------------|

|------15----------------------------------------------------|

|-12---------------------------------------------------------|

|------------------------------------------------------------|

|-16--------------------------------------------------------------------|

|------19-------17---19--17h19p17-16--------(17)-(17)--(17)h(19)p(17)---|

|-----------19-----------------------17~--------------------------------|

|-----------------------------------------------------------------------|

|-----------------------------------------------------------------------|

|-------------------------------------/21--19---/23--19~-----|

|----------------------------16-17-19------------------------|

|-------------14-15-14-15-17---------------------------------|

|-------14-15------------------------------------------------|

|-13-15------------------------------------------------------|

|------------19h21--19--24--23----21/19-19~------------------|

|-16h17--16--------------------------------------------------|

|------------------------------------------------------------|

|------------------------------------------------------------|

|------------------------------------------------------------|

|----------------16-18-19-18~-----------------23--21--19--18-------|

|-------16-17-19---------------------19-21-23----------------19----|

|-17-19---------------------------------------------------------21-|

|------------------------------------------------------------------|

|------------------------------------------------------------------|

|-18h19p18~------------------18--------16--------------------|

|----------------------19h21-----18h19-----14h16p14~---------|

|------------------------------------------------------------|

|------------------------------------------------------------|

|------------------------------------------------------------|

|-14-(14)-13-14-(13)(13)-13h14-13~--------|

|-----------------------------------------|

|-----------------------------------------|

|-----------------------------------------|

|-----------------------------------------|

|-14-13-11--------------------------------|

|----------14-12-11-----------------------|

|-------------------14-12-11-9-10---------|

|---------------------------------10~-----|

|-----------------------------------------|

|---------7----------9-----------------14-13-11-----------------|

|-----6-7--------8-9-----14-12-11---11----------14-12-11-12~----|

|-5-7--------7-9-----------------14-----------------------------|

|---------------------------------------------------------------|

|---------------------------------------------------------------|

|-16---------------------------------------------------|

|----19-18-16----------16-18-19-18-16------------------|

|-------------19-17-19----------------19-17-16-17-19~--|

|------------------------------------------------------|

|------------------------------------------------------|

|-------16------------------------------14-13---------19-18--16----|

|-16h18------19\\18-18~------------12-14--------12/14------------19-|

|------------------------------------------------------------------|

|------------------------------------------------------------------|

|------------------------------------------------------------------|

|-19/21~--------21h23-21h23--21~--------prb24r--23---------------------|

|---------------------------------------------------21-----------------|

|-------------------------------------------------------19~------------|

|----------------------------------------------------------------------|

|-------------------------------------------------------17~------------|

*Listen for timing.

|-18-20-18-20-23-21-20-18-20-18-20-18-20-21-20-18-16-18-18-20-18-20-|

|-------------------------------------------------------------------|

|-------------------------------------------------------------------|

|-------------------------------------------------------------------|

|-------------------------------------------------------------------|

TH-----------|NH--------|

|-23-21-20-18-20-16-18-20-21-23-14~---------------------------------|

|-------------------------------------------------------------------|

|---------------------------------------------24~-------------------|

|--------------------------------------------------------23~--------|

|-------------------------------------------------------------------|

16

NH----------------------------------------------------------------|

|-------------------------------------------------------------------|

|-------------------------------------------------------------------|

|-------------------------------------------------------------------|

|-24~---------------------------------------------------------------|

|-------------------------------------------------------------------|

After awile the intro to White Walls starts to fade in.Added by tabs-database.com and our distinguished partners

Get this song at:  amazon.com

Share your thoughts

0 Comments found