Between The Buried And Me

Between The Buried And Me - Selkies The Endless Obesession Solo guitar tab

Gtr I (C# F# B E G# C#) - 'Btb&m'

Q=100

4/4

Gtr I

|--------7--------| |--------7--------| |--------7--------| |------6-------|

S S S S S S S S S S S S S S S S S S S S S S S S S S S

|-19-17-15-------------------------------------------------------------------------|

|----------18-17-15-17-18-17-15----------------------------------------------------|

|-------------------------------17-16-14-16-17-16-14-------------------------------|

|----------------------------------------------------17-15-14-15-17-15-14----------|

|-------------------------------------------------------------------------17-15-14-|

|----------------------------------------------------------------------------------|

T T

|------6-------| |------6-------| |------6-------| |------6-------|

S S S S S S S S S S S S S S S S S S S S S S S S

|-------------12-15-22-15-12----12-15-20-15-12----------------------12-15-|

|----------13----------------13----------------13----------------13-------|

|-------12----------------------------------------12----------12----------|

|----14----------------------------------------------14----14-------------|

|-15----------------------------------------------------15----------------|

|-------------------------------------------------------------------------|

|------6-------| |------6-------| |--------6--------| |------6-------|

S S S S S S S S S S S S T T S S S S S S S S S S S

|-19-15----------------------------15-19-20-19-15----------------------15-19-|

|-------17----------------------17----------------17----------------17-------|

|----------16----------------16----------------------16----------16----------|

|-------------17----------17----------------------------17----17-------------|

|----------------19-15-19----------------------------------19----------------|

|----------------------------------------------------------------------------|

|------6-------| |------6-------| |------6-------| |------6-------|

S S S S S S S S S S S S S S S S S S S S S S S S

|-17-12----------12-17-12----------------------------12-17-12----------12-|

|-------13----13----------13----------------------13----------13----13----|

|----------14----------------14----------------14----------------14-------|

|-------------------------------14----------14----------------------------|

|----------------------------------15-12-15-------------------------------|

|-------------------------------------------------------------------------|

|--------6--------| |------6-------| |--------6--------| |------6-------|

T T S S S S S S S S S S S T T S S S S S S S S S S S

|-15-19-15----------------------------15-19-20-19-15----------------------15-19-|

|----------17----------------------17----------------17----------------17-------|

|-------------16----------------16----------------------16----------16----------|

|----------------17----------17----------------------------17----17-------------|

|-------------------19-15-19----------------------------------19----------------|

|-------------------------------------------------------------------------------|

|------6-------| |------6-------| |------6-------| |-----6-----|

S S S S S S S S S S S S E S S S S S S S S S S

|-20-17----------17-20-17-------------------------17-20-17-------------|

|-------18----18----------18-------------------18----------18----------|

|----------17----------------17-------------17----------------17-------|

|-------------------------------19-------19----------------------19----|

|----------------------------------20-20----------------------------20-|

|----------------------------------------------------------------------|

|------6-------| |------6-------| |------6-------|

S S S S S S S S S S S S S S S S S S Q

|-------------19-22-19----------19-22-19--------------------|

|----------20----------20----20----------20-----------------|

|-------19----------------19----------------19--------------|

|----21----------------------------------------21-----------|

|-22----------------------------------------------22-17-17--|

|-----------------------------------------------------------|

|------6-------| |------6-------| |------6-------| |------6-------|

S S S S S S S S S S S S S S S S S S S S S S S S

|-20-20-20-17-17-17-------------------------------------------------------|

|-------------------17-17-17----------------------------------------------|

|----------------------------17-17-17-------------------------------------|

|-------------------------------------19-19-19----------------------------|

|----------------------------------------------19-19-19-------------------|

|-------------------------------------------------------20-20-20-17-17-17-|

|------6-------| |------6-------| |------6-------| |------6-------|

S S S S S S S S S S S S S S S S S S S S S S S S

|----------------13-19-13----------13-19-13----------------------------13-|

|-------------15----------15----15----------15----------------------15----|

|----------16----------------16----------------16----------------16-------|

|-------17----------------------------------------17----------17----------|

|----14----------------------------------------------14----14-------------|

|-15----------------------------------------------------15----------------|

W

|-15----*|

|-------*|

|-------*|

|-------*|

|-------*|

|-------*|

Get this song at:  amazon.com

Share your thoughts

0 Comments found