Between The Buried And Me

Between The Buried And Me - Primer guitar tab

this is tremelo picking to 16th

|----------------------------------------------------------------------|

|-----------------------7--9--10--9------7--9--7--10--9-7---------7----|

|--6-----6--8--9--8--9-----------------9------------------9----8-------|

|-----6------------------------------9----------------------9----------|

|----------------------------------------------------------------------|

|----------------------------------------------------------------------|2x

|--------------------------------------------------------------------|

|--------------------------------------------------------------------|

|--9--8--6-----8--9--8--9--11-----8--11--13--11--9--14--13--9--16----|

|-----------7------------------9-------------------------------------|

|--------------------------------------------------------------------|

|--------------------------------------------------------------------|

|-----------------------|

|--16-------------------|

|-----14----------------|

|--------13-------------|

|-----------14-12-------|

|-----------------14----|

SWEEP . . . . . .

THIS IS FOR STEVEAdded by tabs-database.com and our distinguished partners

Get this song at:  amazon.com sheetmusicplus.com

Share your thoughts

0 Comments found