Between The Buried And Me

Between The Buried And Me - Day I Tried To Live Bass guitar tab

"The Day I Tried to Live"

by Between the Buried and Me from the album "The Anatomy Of"

as recorded by Soundgarden

Tuning: Standard

Verse

|-----------------------------------------------------------------|

|-----------------------------------------------------------------|

|-----------------------------------------------------------------|

|-12-12-12-12-12---12-11-0-10-0-9-0-8-8-8-8-8---8-7-0-5-5-5-5-5-5-|x10

Chorus

|-----------------------------|

|-----------------------------|

|-----------------------------|

|-0~-----3~-----0~-----4~-----|x2

|----------------|

|----------------|

|----------------|

|-12~-----2~-----|

|---------------------------------------------------------|

|---------------------------------------------------------|

|---------------------------------------------------------|

|-9-9-9-9-9---9-8-0-7-0-6-0-5-5-5-5-5---5-4-0-2-2-2-2-2-2-|

Verse

|-----------------------------------------------------------------|

|-----------------------------------------------------------------|

|-----------------------------------------------------------------|

|-12-12-12-12-12---12-11-0-10-0-9-0-8-8-8-8-8---8-7-0-5-5-5-5-5-5-|x6

Chorus

|-----------------------------|

|-----------------------------|

|-----------------------------|

|-0~-----3~-----0~-----4~-----|x2

|----------------|

|----------------|

|----------------|

|-12~-----2~-----|

|---------------------------------------------------------|

|---------------------------------------------------------|

|---------------------------------------------------------|

|-9-9-9-9-9---9-8-0-7-0-6-0-5-5-5-5-5---5-4-0-2-2-2-2-2-2-|

Bridge

|-----------------|

|-----------------|

|-----------------|

|-0-------5-------|x3

|-----------------|

|-----------------|

|-----------------|

|-0-------5~------|

Verse

|-----------------------------------------------------------------|

|-----------------------------------------------------------------|

|-----------------------------------------------------------------|

|-12-12-12-12-12---12-11-0-10-0-9-0-8-8-8-8-8---8-7-0-5-5-5-5-5-5-|x1

|---------------------------------------------------------|

|---------------------------------------------------------|

|---------------------------------------------------------|

|-9-9-9-9-9---9-8-0-7-0-6-0-5-5-5-5-5---5-4-0-2-2-2-2-2-2-|x6

Chorus

|-----------------------------|

|-----------------------------|

|-----------------------------|

|-0~-----3~-----0~-----4~-----|x2

|----------------|

|----------------|

|----------------|

|-12~-----2~-----|

|---------------------------------------------------------|

|---------------------------------------------------------|

|---------------------------------------------------------|

|-9-9-9-9-9---9-8-0-7-0-6-0-5-5-5-5-5---5-4-0-2-2-2-2-2-2-|

Verse

|-----------------------------------------------------------------|

|-----------------------------------------------------------------|

|-----------------------------------------------------------------|

|-12-12-12-12-12---12-11-0-10-0-9-0-8-8-8-8-8---8-7-0-5-5-5-5-5-5-|x4

End on

|-2--1-----|

|-------2~-|

|----------|

|----------|Added by tabs-database.com and our distinguished partners

Get this song at:  amazon.com sheetmusicplus.com

Share your thoughts

0 Comments found