Between The Buried And Me

Between The Buried And Me - Bicycle Race Bass guitar tab

"Bicycle Race"

by Between the Buried and Me from the album "The Anatomy Of"

as recorded by Queen

Tuning: Standard

|---------------|---------------|------------13-|-----------------6---|

|---------------|---------------|---------------|------10-----8-----8-|

|---------------|---------------|---------------|-11------11----------|

|---------------|---------------|---------------|---------------------|

|-------------------------------------------|

|-------------------------------------------|

|-5-5-5-5-5-5---2-2-2-2-2-2-----------------|

|-----------------------------4-4-4-4-4-4---|

|-----------------6--------8--13~--|-----------------6------5-6-8-13~--|

|------10-----8-----8--6-----------|------10-----8-----8--6------------|

|-11------11-----------------------|-11------11------------------------|

|----------------------------------|-----------------------------------|

|-----------------6----5--8-5-13~--|-----------------6----5---8---13~--|

|------10-----8-----8--------------|------10-----8-----8---------------|

|-11------11-----------------------|-11------11------------------------|

|----------------------------------|-----------------------------------|

|------3~--|--------|--------3-|------------------------------|

|----------|--------|----------|------------------------------|

|-1--------|-1----1-|-1--1-----|-----------------0~--1---1~---|

|----------|--------|----------|-2~--------3------------------|

|------3~--|--------|----3---3-|---------------------------------|

|----------|--------|----------|-----------------3~--------------|

|-1--------|-1----1-|-1--------|-------------------------------0-|

|----------|--------|----------|-2~--------3---------1-1-1-1-3---|

|-------------------------------------------|-----------------6---|

|-1-1-1-1-1-1---0-0-0-0-0-0-----------------|------10-----8-----8-|

|-----------------------------4-4-4-4-4-4---|-11------11----------|

|-------------------------------------------|---------------------|

|-------------------------------------------|

|-------------------------------------------|

|-5-5-5-5-5-5---2-2-2-2-2-2-----------------|

|-----------------------------4-4-4-4-4-4---|

|-----------------6--------8--13~--|-----------------6--------8--13~--|

|------10-----8-----8--6-----------|------10-----8-----8--6-----------|

|-11------11-----------------------|-11------11-----------------------|

|----------------------------------|----------------------------------|

|---------------------6-|---5-6-8-13~--|------------------6---|

|-10-10----10-11-11-8---|-6------------|------10------8-----8-|

|-------11--------------|--------------|-11------11-----------|

|-----------------------|--------------|----------------------|

|---------|-0~------|------------|---------|-----------|-------------|

|---------|---------|---------0~-|---------|-3---1-0---|-------------|

|---------|---------|-3~---------|---------|---------3-|-1~------1-1-|

|-3~------|---------|------------|-1~------|-----------|-------------|

|-------0-|------------|--------------|---------|-------3-|---------|

|-----0---|---------0~-|-3~-------1-0-|---------|-----3---|---------|

|---------|-3~---------|--------------|-1~------|-1-------|-1~------|

|-3~------|------------|--------------|---------|---------|---------|

|---------|---------|----------|---------|-2--7------|--------|

|---------|-0~------|----3---2-|-0~------|-----------|--------|

|-0~------|---------|-3--------|------3--|---------3-|-1~---3-|

|---------|---------|----------|---------|-----------|--------|

|--------------------------------------|---------|

|--------------------------------------|---------|

|--------------------------------------|---------|

|-3--3-3-3-3---3--3-3-3-3---3--3-3-3-3-|-3-------|

|-------------------------------------------|-----------------6---|

|-3-3-3-3-3-3---2-2-2-2-2-2---1-1-1-1-1-1---|------10-----8-----8-|

|-------------------------------------------|-11------11----------|

|-------------------------------------------|---------------------|

|----------------------------------------------------------------|

|----------------------------------------------------------------|

|-5-5-5-5-5-5---2-2-2-2-2-2------------------------------------3-|

|-----------------------------3-3-3-3-3-3-3-3--3-3-3-3-3-3-3-3---|

*after bells

|-7-----7-----|-----2-----2---2-|-7-----7-----|---4-6-7-7-8-9-6-|

|----7-----7--|-----------------|----7-----7--|-7---------------|

|-------------|-0-0---0-0---0---|-------------|-----------------|

|-------------|-----------------|-------------|-----------------|

|-7-----7-----|-4-----4-----|-------------|--------------------|

|----7-----7--|----4-----4--|-2-----2-----|----------------1-2-|

|-------------|-------------|----2-----2--|---------1----4-----|

|-------------|-------------|-------------|-2---4--------------|

|---------------------3-|------3~--|------3~--|------3~--|

|---------------1-2-----|----------|----------|----------|

|---------1---4---------|-1--------|-1--------|-1--------|

|-2---4-----------------|----------|----------|----------|

|-------------|-------------------|------3~--|------3~--|---------|

|-------------|-------------------|----------|----------|---------|

|-------------|------0~---1--1~---|-1--------|-1--------|-1----1--|

|-2~----------|-3-----------------|----------|----------|---------|

|-------------|-0~-----------|-------------|

|-4~----------|--------------|-------------|

|-------------|--------------|-----------0-|

|-------------|--------------|-1-1-1-1-3---|

|-----------------------------------------------------------6---|

|-1-1-1-1-1-1---0-0-0-0-0-0----------------------10-----8-----8-|

|-----------------------------4-4-4-4-4-4---11------11----------|

|---------------------------------------------------------------|

|-------------------------------------------|

|-0-0-0-0-0-0-------------------------------|

|---------------2-2-2-2-2-2-----------------|

|-----------------------------4-4-4-4-4-4---|

|-----------------6--------8--13~--|

|------10-----8-----8--6-----------|

|-11------11-----------------------|

|----------------------------------|x2

|-----------------6----8-5-6-8-13~--|

|------10-----8-----8---------------|

|-11------11------------------------|

|-----------------------------------|

|-----------------6----8------------|

|------10-----8-----8---------------|

|-11------11------------------------|

|-------------------------4-4~------|Added by tabs-database.com and our distinguished partners

Get this song at:  amazon.com sheetmusicplus.com

Share your thoughts

0 Comments found