Between The Buried And Me

Between The Buried And Me - Alaska guitar tab

intro

|--------------------12h15p12--------------------------14-17/19-15----------|

|-----------------12----------12--------------------15-------------17-------|

|--------------13----------------13--------------14-------------------16----|

|-----------14----------------------14-10-12-/16-------------------------17-|

|--------14-----------------------------------------------------------------|

|--12-15--------------------------------------------------------------------|

guitar 2

|--------------------------------------------------------------------------|

|--------------------------------------------------------------------------|

|--------------------------------------------------------------------------|

|--2----------------------5------------------------7--------------------9--|

|--2----------------------3------------------------5--------------------7--|

|--0-----------------------------------------------------------------------|

|-------------------20-19-17------------------------------------------------|

|----------15-17-19----------20-19-17-16-17-19-17-16------------------------|

|-14-15-17-------------------------------------------17-16------------------|

|-------------------------------------------------------------17-19-16------|

|---------------------------------------------------------------------18-19-|

|---------------------------------------------------------------------------|

guitar 2

|--------------------------------------------------------------------------|

|--------------------------------------------------------------------------|

|--------------------------------------------------------------------------|

|--7------------------5---------------------10--------------9------------2-|

|--7------------------5---------------------10--------------9------------2-|

|--5------------------3---------------------8---------------7------------0-|

|------------------------------------------7h12t15p12p7--------|

|----------------------------------8------8------------8-------|

|----------------------------------------9--------------9------|

|------------------------------9--------9----------------9-----|

|-------------------10p9----7-----------------------------10---|

|------------------------11------------------------------------|

guitar 2

|-------------------------------------------------------------|

|-----------------------------------15------------------------|

|---------------------------12--11----------------------------|

|-2-1------------------------------------5--------------------|

|------2-3-2-----------------------------3-------------5------|

|-------------3-0-3-5-3-2------------------------------3------|

|---------------------------------15-14--11h12p11-----------|

|------------------7-8-/13p12---13---------------12---------|

|------------8----------------12-------------------11---12--|

|--------9-----99------------------------------------14-----|

|--777----7-------------------------------------------------|

guitar 2

|--------------------------------------------------------------------|

|--------------------------------------------------------------------|

|--------------------------------------------------------------------|

|--22-------------22------------22------------------22----------222--|

|--22-------------22------------22------------------22----------222--|

|--00-------------00------------00------------------00----------000--|

|----------------------15-14h15p14--------------------14-/17---|

|----12h13p12---15/17----------------------------12h15---------|

|-12----------12-------------------14-12------12---------------|

|--------------------------------------------12----------------|x4

|------------------------------------------14------------------|

|--------------------------------------------------------------|

guitar 2

|---------------------------------------------------------------|

|---------------------------------------------------------------|

|---------------------------------------------------------------|

|-------9---10/12-----------------------9---10---12-------------|x4

|----7-----------------7--5--7------7-----------------555---22--|

|-0---------------------------------------------------333---00--|

|---------------------------------------------------|

|---------------------------------------------------|

|-------------------------------------8-------------|

|-------9----7---10-----9/10-8/9-7/8--7--2--2-2-2---|

|---777---10---9----9---7/8--6/7-5/6--6--2--2-2-2---|

|-----------------------7/8--6/7-5/6-----0--0-0-0---|

|--------------------|-----------------------------------------------------|

|--------------------|-----------------------------------------------------|

|-8p7p5--------------|-----------------------------------------------------|

|------8p7p5---------|----------------------555------555777888---555-------|

|-----------8p7p5-4^-|-555555000000888777777---777888---------555---777888-|

|--------------------|-----------------------------------------------------|

Part 3

|------------------------------------|

|------------------------------------|

|------------------------------------|

|-------------------555-------5-7-8--|

|-555555000000888777---777888--------|

|------------------------------------|

Then:

Part 1

Part 2

Part 3

Breakdown 1

|-----------------------------------------------------------------|

|-----------------------------------------------------------------|

|-----------------------------------------------------------------|

|----5----5----5----5-----8-----8----8-----8-----1----1----1----1-|

|----7----7----6----6----10----10----9-----9-----3----3----2----2-|

|-000--000--000--000--000---000---000---000---000--000--000--000--|

continued

----------------------|

----------------------|

----------------------|

---3----3----5----5---|

---5----5----6----6---|

000--000--000--000----|

Break 1 (cont.)

|---------|

|---------|

|---------|

|-2-------|

|-2----4^-|

|-0-------|

Part 2

Part 3

Part 1

Part 2

Part 3

Part 1

Break 2

|------0~-----------------------------------------------------|

|------0~-----------------------------------------------------|

|------0~-----------------------------------------------------|

|-5-2--2~--555666555666555666555666555666555666555666555666---|

|-5-2--2~-----------------------------------------------------|

|-3-0--0~-----------------------------------------------------|

strum |-pm come off the strings-|

Breakdown

|-------------------------------------------|

|-------------------------------------------|

|-------------------------------------------|

|-5---6---5---6---5---6---------------------|

|-3---4---3---4---3---4---666-555-666-333---|

|-3-0-4-0-3-0-4-0-3-0-4-0-444-333-444-111---|

|--------------|

|--------------|

|--------------|

|-2~--5~--10~--|

|-2~--5~--10~--|

|-0~--3~---8~--|x2

|----------------------------------------------------------|

|----------------------------------------------------------|

|----------------------------------------------------------|

|----6-7----6-7----5-6----5-6----4-5----4-5----2-3----2--3-|

|--9------9------8------8------7------7------5------5------|

|-0-0-0--0-0-0--0-0-0--0-0-0--0-0-0--0-0-0--0-0-0--0-0-0---|x2Added by tabs-database.com and our distinguished partners

Get this song at:  amazon.com sheetmusicplus.com

Share your thoughts

0 Comments found