Between The Buried And Me

Selkies The Endless Obsession Solo Tabs



More from Between The Buried And Me

Between The Buried And Me Tabs
Between The Buried And Me Lyrics

This is my tab of both of the solos of selkies,  the first solo is from xdespairfactor
Ultimate-Guitar and I just found a way to make it a little easier. The second part of
solo I give credit to soad1789 at youtube, although I did make a few changes to his as
I'm posting these to have the 2 solo's together and also so the second part of the
solo is up.
I know BTBAM plays in C# standard but I did the first part in standard and the second in
D. If you dont want to quickly tune your guitar down just play all of the notes being
on the low E 2 frets up.
Clean Solo
E||--------------------------|
B||--------------------------|
G||--------9-----9-11--------|
D||-9-11---11----------------|
A||--------------------------|
E||--------------------------|
--------------------------------------------|
-9-10-9-------------------------------------|
-----------9---------------9-/11------------|
--------------(11)-/9-/7---------(11)-/9-/7-|
--------------------------------------------|
--------------------------------------------|
-------------------------------------------------------|
-----------9-10-9--------------------------------------|
----9-11-----------11-9-----------------------------11-|
-9--------------------------12-11-9---------9-11-------|
----------------------------------------11-12----------|
-------------------------------------------------------|
------------------------------------------------------------|
--7-/9-9-/10------------------------------------------------|
-------------9-9-11------------9-----6-----7---6------------|
-------------------------------7-------------------7--------|
------------------------------------------------------7-7-9-|
------------------------------------------------------------|
------------------------------------------------------------|
-----------------------10-10-12-13-12-10----7-/9------------|
------------------9-11-------------------11--------9--------|
---------7-9-/11-------------------------------------9------|
-5-7-/9------------------------------------------------9-11-|
------------------------------------------------------------|
-12^-12^-9^-----------9-----------|
--------------12-10-12--10---9--9-|
------------------------------11--|
----------------------------------|
----------------------------------|
----------------------------------|
--------------------------------------------------|
------------------------9-------------------------|
-------------9-----11-9---------------------------|
-9-12-11----12-----------9-11-9-------------------|
----------------------------------------11-9------|
-----------------------------------------------12-|
---------------------------------------------|
---------------------------------------------|
---------------------------------------------|
--------------------------------2------------|
-2-4-2-/0-----0---0-/2--------4---(2)-/4-----|
----------0-2---2----------------------------|
(Under Piano)
------------------|
------------------|
------------------|
------------------|
-7----------9-----|
----(9)-/10-------|
---------------------------------------------------|
---------------------------------------------------|
-----------------9-11-------------7-6--------------|
------7-9-/11--------11-9-7-9------7-/9------------|
-7-9-----------------------------------------------|
---------------------------------------------------|
(attempt to quickly tune from standard to Drop D)
Ending Solo
E||------------------|--------------------------------|
B||------------------|--------------------------------|
G||------------------|--13---14-13--------------------|
D||------------------|--------------14----11----14-16-|
A||------------------|--------------------------------|
D||------------------|--------------------------------|
----------------------------|----------------------------|
----------------------------|----------------------------|
--------13------------------|------------------------13--|
--------------14--14--------|--------14--16----12--------|
----------------------12----|--14------------------------|
----------------------------|----------------------------|
----------------------------------------|----------------------------------|
----------------------------------------|----------------------------------|
----14--13--14--13--14--13------11--13--|--13---14-13----------------------|
----------------------------11----------|--------------14---11----14-161416|
----------------------------------------|----------------------------------|
----------------------------------------|----------------------------------|
--------------------------|----------------------------|
--------------------------|----------------------------|
--------13----------------|------------------------13--|
--------------14----------|--------14--16----12--------|
----------------------12--|--14------------------------|
--------------------------|----------------------------|
----------------------------------------|----------------------|
----------------------------------------|----------------------|
----14--13--14--13--14--13------11--13--|--14------12----------|
----------------------------11----------|----------------------|
----------------------------------------|----------------------|
----------------------------------------|----------------------|
----------------------------|------------------------15r----|
--------------------15------|--15---13-15-13----------------|
--14----16----14------------|------------------12-----------|
----------------------------|-------------------------------|
----------------------------|-------------------------------|
----------------------------|-------------------------------|
------12----10r-----------------|----------------------------|
---10----10------------x---9-10-|--14---15-14-12-14----------|
-------------------------9------|----------------------------|
--------------------------------|----------------------------|
--------------------------------|----------------------------|
--------------------------------|----------------------------|
--------------------------------|---------------------------|
--14---15-14-12-14----12--------|---------------------------|
----------------------------14--|--13---14-13-11-13----14---|
--------------------------------|---------------------------|
--------------------------------|---------------------------|
--------------------------------|---------------------------|
------------------------|
--------------------14--|
--16--14------16--------|
------------------------|
------------------------|
------------------------|
-----------------------------14-17-14-------|
--15--14------------------15----------15-17-|
----------14--14-------14-------------------|
--------------------16----------------------|
--------------------------------------------|
--------------------------------------------|
----------------------------------------------|--------------------|
--17------------------------15-------14-------|--------------------|
-----16r--16-13-14-16-------------------------|--13b---------------|
-------------------------------16-14----14-12-|--------------------|
----------------------------------------------|--------------------|
----------------------14-12-------------------|--------------------|
------------------------------------------------------------------------|
-----------------------------------------12-----------------------------|
--13-11----------------------------11-13----13-11-----------------------|
--------12-11-------------11-12-14----------------12-11-----------------|
--------------14-11-12-14-------------------------------14-12-11-9-7-11-|
------------------------------------------------------------------------|
---------------------|-----------------------|--------------------------|
---------------------|-------------------10--|--9----10--9--------------|
----------------9----|----4----6----9--------|----------------9---------|
---------7-----------|-----------------------|-------------------9--11--|
--7------------------|-----------------------|--------------------------|
---------------------|-----------------------|--------------------------|
-------------------|--12r--------------------|
-------------------|--------------10-9-10~---|
----9--------------|-------------------------|
---------9~--------|-------------------------|
-------------------|-------------------------|
-------------------|-------------------------|
----16r--14-12-14---------12-------9-|----------------------------17/-----|
------------------14r--12----12-10---|-------------------------14---------|
-------------------------------------|--13r-----14------------------------|
-------------------------------------|-------14----14-16~---16------------|
-------------------------------------|------------------------------------|
-------------------------------------|------------------------------------|
--16-14-12-----------------------------------------------------------|
-----------15-14-12-14-15-14-12--------------------------------------|
--------------------------------14-13-11-----------------------------|
-----------------------------------------14-12-11--------------------|
--------------------------------------------------14-12-11-14-11-----|
-----------------------------------------------------------------14~-|
-------------9-12-19t12-9----9-12-17t12-9--------------------9-12/|
----------10--------------10--------------10--------------10------|
--------9------------------------------------9----------9---------|
-----11----------------------------------------11----11-----------|
--12----------------------------------------------12--------------|
------------------------------------------------------------------|
--16t12-9--------------------9-16-17-16-12----------------------12-16-|
----------10--------------10---------------14----------------14-------|
-------------9----------9---------------------13----------13----------|
---------------11----11--------------------------14----14-------------|
------------------12--------------------------------16----------------|
----------------------------------------------------------------------|
--14t9-5---5-9-14t9-5---------------5-9-14t9-5---5-9-|
---------7------------7-----------7------------7-----|
------------------------6-------6--------------------|
--------------------------7---7----------------------|
----------------------------9------------------------|
-----------------------------------------------------|
--12-16-12----------------------12-16-17t16-12----------------------12-16-|
-----------14----------------14----------------14----------------14-------|
--------------13----------13----------------------13----------13----------|
-----------------14----14----------------------------14----14-------------|
--------------------16----------------------------------16----------------|
--------------------------------------------------------------------------|
--17-14----------14-17-14----------------------------14-17-14-------------|
--------15----15----------15----------------------15----------15----------|
-----------14----------------14----------------14----------------14-------|
--------------------------------16----------16----------------------16----|
-----------------------------------17----17----------------------------17-|
--------------------------------------19----------------------------------|
---------------16-19-16----------16-19-16-------------------|
------------17----------17----17----------17----------------|
---------16----------------16----------------16-------------|
------18----------------------------------------18----------|
--19-----------------------------------------------19-------|
------------------------------------------------------21~---|
--17-17-17-14-14-14-----------------------------------|
--------------------14-14-14--------------------------|
-----------------------------14-14-14-----------------|
--------------------------------------16--------------|
------------------------------------------16----------|
----------------------------------------------19--16--|
-----------------14-17-14----------14-17-14----------------------------14-|
--------------15----------15----15----------15----------------------15----|
-----------14----------------14----------------14----------------14-------|
--------16----------------------------------------16----------16----------|
--14-17----------------------------------------------17-14-17-------------|
--------------------------------------------------------------------------|
--16-17-16----------------------------------------|
-----------17-------------------------------------|
--------------16-18-16----------------------------|
-----------------------19-18-19-18-14-------------|
--------------------------------------14-16-14-12-|
--------------------------------------------------|
--16-17-16----------------------------------------|
-----------17-------------------------------------|
--------------16-18-16----------------------------|
-----------------------19-18-19-18-14-------------|
--------------------------------------14-16-14-12-|
--------------------------------------------------|
--16-17-16----------------------------------------|
-----------17-------------------------------------|
--------------16-18-16----------------------------|
-----------------------19-18-19-18-14-------------|
--------------------------------------14-16-14-12-|
--------------------------------------------------|
--16-17-16----------------------------------------|
-----------17-------------------------------------|
--------------16-18-16----------------------------|
-----------------------19-18-19-18-14-------------|
--------------------------------------14-16-14-12-|
--------------------------------------------------|
--16-17-16----------------------------------------|
-----------17-------------------------------------|
--------------16-18-16----------------------------|
-----------------------19-18-19-18-14-------------|
--------------------------------------14-16-14-12-|
--------------------------------------------------|
--16-17-16----------------------------------------|
-----------17-------------------------------------|
--------------16-18-16----------------------------|
-----------------------19-18-19-18-14-------------|
--------------------------------------14-16-14-12-|
--------------------------------------------------|
--16-17-16----------------------------------------|
-----------17-------------------------------------|
--------------16-18-16----------------------------|
-----------------------19-18-19-18-14-------------|
--------------------------------------14-16-14-12-|
--------------------------------------------------|
--16-17-16----------------------------------------|
-----------17-------------------------------------|
--------------16-18-16----------------------------|
-----------------------19-18-19-18-14-------------|
--------------------------------------14-16-14-12-|
--------------------------------------------------|
--------------------|
--10----------------|
--------------------|
--------------------|
--------------------|
--------------------|



Get this song at amazon.com      Ebay     Ringtones Ringtones  


Learn to play: Songwriting, Piano, Harmonica, Guitar

Related Between The Buried And Me Tabs

Ad A Dglgmut Solo tabs
Coulrophobia tabs
Camilla Rhodes tabs
Backwards Marathon Bass tabs
What We Have Become tabs
Destructo Spin tabs
Medicine Wheel tabs
Reaction tabs
Aspirations tabs
Selkies The Endless Obsession Solo tabs
Little 15 Bass tabs
Croakes And Boatshoes tabs
Selkies The Endless Obsession Bass tabs
Ants Of The Sky tabs
Arsonist tabs
Prequel To The Sequel Intro tabs
More Of Myself To Kill tabs
Alaska tabs
Backwards Marathon tabs
Selkies The Endless Obsession tabs


Guitar Tabs









All tabs are property and copyright of their owners. All tabs provided for educational purposes only. Privacy Policy, DMCA