Between The Buried And Me

Mordecai Tabs



More from Between The Buried And Me

Between The Buried And Me Tabs
Between The Buried And Me Lyrics



Mordecai



Between the Buried and Me



Tuning: 1 Ĺ steps down (Db Gb B E Ab Db)



This song changes time signatures quite frequently, so Iíll lay them all out for you.



Day One - Theme 1

Guitar 1

3/4 4/4 7/8

|----------|-----------------------------------|------------------------------|

|----17----|-----------------------------------|------------------------------|

|----15----|-----------------------------------|------------------------------|

|----------|-----------------------------------|------------------------------|

|----------|-3-h6p3-----------4-h7p4-----------|-3-h6p3-----------3-2-3-2-3-2-|

|----------|--------0-0-0-0-0--------0-0-0-0-0-|--------0-0-0-0-0-------------|

| PM------| PM------| PM------| |

|Guitar 2 |

|----------|-----------------------------------|------------------------------|

|----------|-----------------------------------|------------------------------|

|----------|-----------------------------------|------------------------------|

|----------|-----------------------------------|------------------------------|

|----------|-----------------------------------|------------------------------|

|----------|-8h11p8-0-0-0-0-0-9h12p9-0-0-0-0-0-|-8h11p8-0-0-0-0-0-8-7-8-7-8-7-|

PM------| PM------| PM------|



Guitar 1

4/4 7/8 x2

|----------------------------------------------|------------------------------|

|----------------------------------------------|------------------------------|

|----------------------------------------------|------------------------------|

|----------------------------------------------|------------------------------|

|-3-h6p3-----------------4-h7p4----------------|-3-h6p3-----------------5-4-3-|

|---------0--0--0--0--0----------0--0--0--0--0-|---------0--0--0--0--0--3-2-1-|

| PM----------| PM----------| PM-----------------| |

|Guitar 2 |

|----------------------------------------------|------------------------------|

|----------------------------------------------|------------------------------|

|----------------------------------------------|------------------------------|

|----------------------------------------------|------------------------------|

|----------------------------------------------|------------------------5-4-3-|

|-8h11p8--0--0--0--0--0--9h12p9--0--0--0--0--0-|-8h11p8--0--0--0--0--0--3-2-1-|

PM----------| PM----------| PM-----------------|



Both Guitars

4/4

|------------------------------|---------------------------|

|------------------------------|---------------------------|

|------------------------------|---------------------------| x2

|------------------------------|---------------------------|

|--10--6--10--6--10--6--11--6--|--10--6--10--6--10--6--9\--|

|------------------------------|---------------------------|

// // // // // // // // // // // // // //



Guitar 1

4/4 7/8

|-----------------------------------|------------------------------|

|-----------------------------------|------------------------------|

|-----------------------------------|------------------------------|

|-----------------------------------|------------------------------|

|-3-h6p3-----------4-h7p4-----------|-3-h6p3-----------3-2-3-2-3-2-|

|--------0-0-0-0-0--------0-0-0-0-0-|--------0-0-0-0-0-------------|

| PM------| PM------| PM------| |

|Guitar 2 |

|-----------------------------------|------------------------------|

|-----------------------------------|------------------------------|

|-----------------------------------|------------------------------|

|-----------------------------------|------------------------------|

|-----------------------------------|------------------------------|

|-8h11p8-0-0-0-0-0-9h12p9-0-0-0-0-0-|-8h11p8-0-0-0-0-0-8-7-8-7-8-7-|

PM------| PM------| PM------|





Guitar 1

4/4 7/8 x2

Added by tabs-database.com and our distinguished partners
Get this song at amazon.com      Ebay     Ringtones Ringtones  


Learn to play: Songwriting, Piano, Harmonica, Guitar

Related Between The Buried And Me Tabs

Colorblind tabs
Fire For A Dry Mouth tabs
More Of Myslef To Kill tabs
Ad A Dglgmut Solo tabs
Little 15 Bass tabs
Camilla Rhodes tabs
Laser Speed Bass tabs
Day I Tried To Live Bass tabs
Selkies The Endless Obsession Bass tabs
Viridian Bass tabs
Coulrophobia tabs
Backwards Marathon tabs
Laser Speed tabs
Aesthetic tabs
Destructo Spin tabs
Alaska tabs
Mordecai tabs
Primer tabs
Selkies The Endless Obesession Solo tabs
Alaska Intro tabs


Guitar Tabs









All tabs are property and copyright of their owners. All tabs provided for educational purposes only. Privacy Policy, DMCA