Between The Buried And Me

Medicine Wheel Tabs



More from Between The Buried And Me

Between The Buried And Me Tabs
Between The Buried And Me Lyrics



Band: Between the Buried and Me

Song: Medicine Wheel

Victory Records.

Tabber: Senses X Fail



this is a easy song it took me about a half an

hour to figure it all out. enjoy.

-------------------------------------------------------------------

Guitar 1 (Db Gb B E Ab Db)



Guitar 2 (Db Gb B E Ab Db)



Guitar 3 (Db Gb B E Ab Db)

-------------------------------------------------------------------





Guitar 1



Intro:

Db|----------------------------------------|

Ab|--------------------7b------------------|

E |------------3/7---------0--------7/-----|

B |----------4-------0-------0------7/-----|

Gb|--5--5--3-------------------------------|

Db|-0--0-----------------------------------|



Verse, Chorus etc....

Db|----------------------------------------|

Ab|-----------------------7b---------------|

E |------------3/7--0--------0------7/-----|

B |----------4--------0--0-----0-0--7/-----|

Gb|--5--5--3--------------------0----------|

Db|-0--0-----------------------------------|





-------------------------------------------------------------------





Guitar 2



Intro:

Db|-19------------15---------------14b-------|

Ab|------------------------------------------|

E |------------------------------------------|

B |------------------------------------------|

Gb|------------------------------------------|

Db|------------------------------------------|



Verse, Chorus etc....

Db|-19-15-15-14-14-12/10---19-19-15-15-14-14-12/10/12/10--|

Ab|-------------------------------------------------------|

E |-------------------------------------------------------|

B |-------------------------------------------------------|

Gb|-------------------------------------------------------|

Db|-------------------------------------------------------|





-------------------------------------------------------------------



Guitar 3

this isnt a major part but hey might as well tab it

This comes in towards the end of the song as guitar 2

is playing his part.



Verse,Chorus etc....

Db|-20-20-20-20---20-20-20-20---|

Ab|-----------------------------|

E |-----------------------------|

B |-----------------------------|

Gb|-----------------------------|

Db|-----------------------------|





-------------------------------------------------------------------



This is a cool instrumental by the almighty BTBAM

I am pretty sure this is close to 100% accurate.

Any comments or suggestions related to any tab is submit

email me at webmaster at tabs-database.com.com.... Thanks



Senses X Fail













Added by tabs-database.com and our distinguished partners
Get this song at amazon.com      Ebay     Ringtones Ringtones  


Learn to play: Songwriting, Piano, Harmonica, Guitar

Related Between The Buried And Me Tabs

Alaska tabs
Bicycle Race Bass tabs
Backwards Marathon Bass tabs
Need For Repetition tabs
Mordecai tabs
Colorblind tabs
Laser Speed tabs
Lost Perfections A And B tabs
Selkies The Endless Obesession Solo tabs
Reaction tabs
Medicine Wheel tabs
Destructo Spin tabs
Colorblind Bass tabs
Ants Of The Sky Solo tabs
All Bodies tabs
Croakes And Boatshoes tabs
Shevanel Take 2 tabs
Viridian Bass tabs
Fire For A Dry Mouth tabs
Prequel To The Sequel Intro tabs


Guitar Tabs









All tabs are property and copyright of their owners. All tabs provided for educational purposes only. Privacy Policy, DMCA