Between The Buried And Me

Destructo Spin Tabs



More from Between The Buried And Me

Between The Buried And Me Tabs
Between The Buried And Me Lyrics



Found out as much as we could







C#|---------------------------------------------------------------|

G#|---------------------------------------------------------------|

E|---------------------------------------------------------------|

B|--------------------------------------------------------346-3--|

F#|--6-2----5---6-2----5-----56---6-2----5---6-2----5--346--------|

C#|-3---3-0-2--3---3-0-2--34-----3---3-0-2--3---3-0-2-------------|



C#|-------------------------------------------------------|

G#|-------------------------------------------------------|

E|-------------------------------------------------------|

B|---------------346-568---------------------------------|

F#|--6-2----5--346-------568---6-2----5--3322-4210--------|

C#|-3---3-0-2-----------------3---3-0-2-------------1b1---|



C#|---------------------------------------------------------------|

G#|---------------------------------------------------------------|

E|---------------------------------------------------------------|

B|--------------------------------------------------------346-3--|

F#|--6-2----5---6-2----5-----56---6-2----5---6-2----5--346--------|

C#|-3---3-0-2--3---3-0-2--34-----3---3-0-2--3---3-0-2-------------|



C#|-----------------------------------------------------------------|

G#|-----------------------------------------------------------------|

E|-----------------------------------------------------------------|

B|---------------346-568-------------------------------------------|

F#|--6-2----5--346-------568---6-2----5--3322-4210---------56---67--|

C#|-3---3-0-2-----------------3---3-0-2-------------1b1--34---45----|



Guitar left:X3

C#|------------------------------------|

G#|------------------------------------|

E|------------------------------------|

B|------------------------------------|

F#|-6---7--33-22-4210---33-22-4210-----|

C#|-4-0-5-------------4------------4b4-|



Guitar right:X3

C#|------------------------------------|

G#|------------------------------------|

E|------------------------------------|

B|------------------------------------|

F#|-6---7--33-22-4210---33-22-4210-----|

C#|-4-0-5-------------1------------1b1-|



Guitar Left:

C#|-------------------------------------|

G#|-------------------------------------|

E|-------------------------------------|

B|--2-5-1--1-1---5-4-2-5-1--1-1--------|

F#|--2-5-1--1-1-------2-5-1--1-1--6-5-4-|

C#|--2-5-1--1-1--2-1--2-5-1--1-1-3-2-1--|



Guitar right:

C#|-------------------------------------|

G#|-------------------------------------|

E|-------------------------------------|

B|--2-5-1--1-1---5-4-2-5-1--1-1--6-5-4-|

F#|--2-5-1--1-1-------2-5-1--1-1--------|

C#|--2-5-1--1-1--2-1--2-5-1--1-1-3-2-1--|



C#|------------------------------------|

G#|------------------------------------|

E|------------------------------------|

B|--2-5-1--2-5-1--2-5-1--2-5-1--12/1--|

F#|--2-5-1--2-5-1--2-5-1--2-5-1--12/1--|

C#|--2-5-1--2-5-1--2-5-1--2-5-1--12/1--|



X4

C#|-------------------------------------------------------|

G#|-------------------------------------------------------|

E|-------------------------------------------------------|

B|-251--251--251--251--251--251--251--251--251--251--251-|

F#|-251--251--251--251--251--251--251--251--251--251--251-|

C#|-251--251--251--251--251--251--251--251--251--251--251-|



Guitar Left:

C#|--------------------------|--------------------------------|

G#|--------------------------|--------------------------------|

E|--------------------------|--------------------------------|

B|--4-----------------------|--------------------------------|

F#|--2-22-1h2p1h2p1h2p1h2-22-|-1h2p1h2p1h2p1h2-22-1h2p1h2-22--|

C#|--2-00-----------------00-|-----------------00---------00--|



Both guitars: X2 and 2nd guitar: X4

C#|------------------------------------------------------|

G#|------------------------------------------------------|

E|------------------------------------------------------|

B|------------------------------------------------------|

F#|--1h2p1h2p1h2p1h2-22--1h2p1h2p1h2p1h2-22--1h2p1h2-22--|

C#|------------------00------------------00----------00--|



Guitar Left:X2

C#|------------------------------------------------------|

G#|------------------------------------------------------|

E|------------------------------------------------------|

B|------------------------------------------------------|

F#|--4h5p4h5p4h5p4h5-22--4h5p4h5p4h5p4h5-22--4h5p4h5-22--|

C#|------------------00------------------00----------00--|



Both Guitars: X2

C#|------------------------------------------------------|

G#|------------------------------------------------------|

E|------------------------------------------------------|

B|------------------------------------------------------|

F#|--1h2p1h2p1h2p1h2-22--1h2p1h2p1h2p1h2-22--1h2p1h2-22--|

C#|------------------00------------------00----------00--|



C#|------------------------------------------|

G#|------------------------------------------|

E|------------------------------------------|

B|------------------------------------------|

F#|--1h2p1h2--4h5p4h5--7h8p7h8--10h11/-------|

C#|------------------------------------------|



C#|--------------------------------------------------|

G#|--------------------------------------------------|

E|--------------------------------------------------|

B|--------------------------------------------------|

F#|--------------------------------------------------|

C#|--------------------------------------------------|



C#|--------------------------------------------------|

G#|--------------------------------------------------|

E|--------------------------------------------------|

B|--4-7-8-------------------------------------------|

F#|--4-5-6-------------------------------------------|

C#|--2-5-6-------------------------------------------|





2:08

C#|-----------------------------------------------------------|

G#|-----------------------------------------------------------|

E|-----------------------------------------------------------|

B|-------------------------4---------------------------------|

F#|----4----4----4----4-356--35-6-7-0"-7-0"-7h10p7-6--6-7-7*--|

C#|-1---356--356--356----------------------------------5-5----|



C#|--------------------------------------------------|

G#|--------------------------------------------------|

E|--------------------------------------------------|

B|-------------------8/11---8/11--0"-7/10-----------|

F#|----------------------------------------6"--------|

C#|-----------------0------0-------------------------|



C#|--------------------------------------------------|

G#|--------------------------------------------------|

E|--------------------------------------------------|

B|--4-7-7--11-10-11-10-6-5-6------------------------|

F#|--4-7-6--9--8--9--8--4-3-4------------------------|

C#|--2-5-6--9--8--9--8--4-3-4------------------------|





------------------------------------------------------------------------|

------------------------------------------------------------------------|

------------------------------------------------------------------------|

--------------------------------------------------------------7---------|

-5---7---8---10---8---7-8-7-5-7-----5---7----8---7-----10-8-7---10-8-7--|

0--0---0---0----0---0-------------0---0---0---0----10-------------------|





--------------------------10-------10--------10--------------------------|

-----------------------------14-------14---------------------------------|

--------------------------------12-------122-----------------------------|

---------7---------------------------------------------------------------|

--10-8-7---10-8-7---000--------------------------------------------------|

10------------------000--------------------------------------------------|



------------------------------------------------------------------------|

------------------------------------------------------------------------|

------------------------------------------------------------------------|

------------------------------------------------------------------------|

0000-000-0000-000-0-1-4-1-0-1-------------------------------------------|

0000-000-0000-000-0-1-4-1-0-1-------------------------------------------|





tabbed by Ben Hook and Cole GerdemanAdded by tabs-database.com and our distinguished partners
Get this song at amazon.com      Ebay     Ringtones Ringtones  


Learn to play: Songwriting, Piano, Harmonica, Guitar

Related Between The Buried And Me Tabs

Selkies The Endless Obesession Solo tabs
Alaska tabs
Fire For A Dry Mouth tabs
Selkies The Endless Obsession Solo tabs
Medicine Wheel tabs
Need For Repetition tabs
Colorblind tabs
Backwards Marathon tabs
Destructo Spin tabs
Mordecai tabs
Ants Of The Sky tabs
Coulrophobia tabs
Territory Bass tabs
Naked By The Computer tabs
Prequel To The Sequel Intro tabs
Primer tabs
Ad A Dglgmut Solo tabs
Camilla Rhodes tabs
Ad A Dglgmut tabs
Viridian Bass tabs


Guitar Tabs









All tabs are property and copyright of their owners. All tabs provided for educational purposes only. Privacy Policy, DMCA