Between The Buried And Me

Coulrophobia Tabs



More from Between The Buried And Me

Between The Buried And Me Tabs
Between The Buried And Me Lyrics



Title: Coulrophobia
Artist: Between the Buried and Me
Album: The Silent Circus

Copyright Victory Records 2003
Version 1.0 - 19/10/2004

Tabbed by: Jorge Goncalves (jorgevent@msn.com)

. - palm mute
/ - slide up and down to
b - Bend
() - Natural harmonics
* - Pinch harmonics
h - Hammer
p - Pull off
" - Tremolo Picking

Tuning:(C# F# B E G# C#)

Bend the equivalent
of 3 frets:
C#|---b19---||
G#|---------||
E|---------||
B|---------||
F#|---------||
C#|---------||

Left guitar only:
C#|------------------------------------------||
G#|------------------------------------------||
E|------------------------------------------||
B|------------------------------------------||
F#|--10"-11"-10"--10"--10"--10"-11"-10"-10"--||
C#|------------------------------------------||

Guitar left: Guitar right:
C#|------|| C#|------||
G#|------|| G#|------||
E|------|| E|------||
B|------|| B|------||
F#|--14--|| F#|--14--||
C#|--11--|| C#|--11--||
.
C#|----------------------------------------------||
G#|----------------------------------------------||
E|----------------------------------------------||
B|----------------------------------------------||
F#|--14-------14-------13--13--13--13--13--13----||
C#|--11--000--11--000--10--10--10--10--10--10----||

Guitar left: Guitar right:
C#|-----------------------------|| C#|------------------------||
G#|-----------------------------|| G#|------------------------||
E|-----------------------------|| E|------------------------||
B|-----------------------------|| B|------------------------||
F#|--14-------10"---------------|| F#|--14-----14-------------||
C#|--11--000------10"-11"-------|| C#|--11-000-11-000-7"--4"--||

C#|--------------------------------------------------------------------||
G#|--------------------------------------------------------------------||
E|--------------------------------------------------------------------||
B|--------------------------------------------------------------------||
F#|--14-------14-------13--13--13--13--13--13--1-1-1-1-1-1-1-1-1-1-1-1-||
C#|--11--000--11--000--10--10--10--10--10--10--1-1-1-1-1-1-1-1-1-1-1-1-||
. . . . . . . . . . . .
C#|----------------------------------------------||
G#|----------------------------------------------||
E|----------------------------------------------||
B|----------------------------------------------||
F#|--14-------14-------13--13--13--13--13--13----||
C#|--11--000--11--000--10--10--10--10--10--10----||

Guitar left: Guitar right:
C#|-----------------------------|| C#|------------------------||
G#|-----------------------------|| G#|------------------------||
E|-----------------------------|| E|------------------------||
B|-----------------------------|| B|------------------------||
F#|--14-------10"---------------|| F#|--14-----14-------------||
C#|--11--000------10"-11"-------|| C#|--11-000-11-000-7"--4"--||

C#|----------------------------------------------||
G#|----------------------------------------------||
E|----------------------------------------------||
B|----------------------------------------------||
F#|--14-------14-------13--13--13--13--13--13----||
C#|--11--000--11--000--10--10--10--10--10--10----||

Left guitar only:
C#|------------------||
G#|------------------||
E|------------------||
B|------------------||
F#|---10"-11"-10"----||
C#|------------------||

C#|----------------------------------------------||
G#|----------------------------------------------||
E|----------------------------------------------||
B|----------------------------------------------||
F#|--14-------14-------13--13--13--13--13--13----||
C#|--11--000--11--000--10--10--10--10--10--10----||

Guitar left: Guitar right:
C#|-----------------------------|| C#|------------------------||
G#|-----------------------------|| G#|------------------------||
E|-----------------------------|| E|------------------------||
B|-----------------------------|| B|------------------------||
F#|--14-------10"---------------|| F#|--14-----14-------------||
C#|--11--000------10"-11"-------|| C#|--11-000-11-000-7"--4"--||

C#|----------------------------------------------||
G#|----------------------------------------------||
E|----------------------------------------------||
B|----------------------------------------------||
F#|--14-------14-------13--13--13--13--13--13----||
C#|--11--000--11--000--10--10--10--10--10--10----||

C#|----------------------||
G#|----------------------||
E|----------------------||
B|--3--6--5--3---6---9--||
F#|--3--4--3--1---4---7--||
C#|--1--4--3--1---4---7--||
. . .
C#|--------------------------------------------------------------------||
G#|--------------------------------------------------------------------||
E|--------------------------------------------------------------------||
B|--------------------------------------------------------------------||
F#|--14-------14-------13--13--13--13--13--13--1-1-1-1-1-1-1-1-1-1-1-1-||
C#|--11--000--11--000--10--10--10--10--10--10--1-1-1-1-1-1-1-1-1-1-1-1-||
. . . . . . . . . . . .
C#|----------------------------------------------||
G#|----------------------------------------------||
E|----------------------------------------------||
B|----------------------------------------------||
F#|--14-------14-------13--13--13--13--13--13----||
C#|--11--000--11--000--10--10--10--10--10--10----||

Guitar left:
C#|-----------------------------------------------------||
G#|-----------------------------------------------------||
E|-----------------------------------------------------||
B|--------------8-8-8--444--8-8-8--444444-10----5---9--||
F#|--11/3--11/3--101010-666--101010-666666-8-----5---9--||
C#|----------------------------------------8--0--3---7--||
.
Guitar right:
C#|-----------------------------------------------------||
G#|-----------------------------------------------------||
E|-----------------------------------------------------||
B|--------------8-8-8--444--8-8-8--444444-10----5---9--||
F#|--2/10--2/10--101010-666--101010-666666-8-----5---9--||
C#|----------------------------------------8--0--3---7--||
.
Third guitar: 1:13 X2
C#|-------------------------------------10----11----------------||
G#|-------10----11-------13----11----------------------11-10----||
E|---------------------------------------------------------11--||
B|----12----12-------12----12-------12----12-------12----------||
F#|--10-------------10-------------10-------------10------------||
C#|-------------------------------------------------------------||
. . . . . . . . . . .
C#|-------------------------------------14----15----------------||
G#|-------14----15-------17----15----------------------15-14----||
E|---------------------------------------------------------14--||
B|----16----16-------16----16-------16----16-------16----------||
F#|--14-------------14-------------14-------------14------------||
C#|-------------------------------------------------------------||
. . . . . . . . . . .
C#|----------------------------------------||
G#|-------12-------------12-13-------------||
E|--12-14------11-12--14-------11-12-14---||
B|-----------14---------------------------||
F#|----------------------------------------||
C#|----------------------------------------||

C#|---------------------------------9----10-14-9--------||
G#|------9----10-------12----10-----------------10------||
E|-----------------------------------------------11----||
B|---11---11------11----11------11---11------------11--||
F#|--9------------9-------------9-----------------------||
C#|-----------------------------------------------------||
.. . .. . .. .
C#|-----------------------------10h13p10-----12-----------||
G#|---------------------------11--------11-----13-12-10---||
E|------9-10--99-10-12-----10------------10-----------9--||
B|--1212-----------------12------------------------------||
F#|---------------------13--------------------------------||
C#|-------------------------------------------------------||

Left guitar:
C#|---------------------------------------------------------------||
G#|---------------------------------------------------------------||
E|-----------------4---------------------------------4-----------||
B|--9-7-4-4-4-4-6-7---7-5-3-2-5---9---9-7-4-4-4-4-6-7---7-5-3-2--||
F#|--7-5-4-4-4-------7-5-3-1-0-5---9---7-5-4-4-4-------7-5-3-1-0--||
C#|------2-2-2-----------------3---7-------2-2-2------------------||
. . ... . . ...
Right guitar:
C#|---------------------------5----------------------------------------------||
G#|----7---8----10---8----5--------8---7-------------------------------------||
E|------------------------------------------------------------2---4------4--||
B|--9---9----9----9----7---7----7---7-------2---4----6---4----------4-6-7---||
F#|-7--------7---------5--------5----------4---4----4---4----4---4---------7-||
C#|---------------------------------------2--------2--------2----------------||
.. . .. . .. . .. . .. . .. . .. .
C#|-------------------------------------------------||
G#|-----5---6-----3---5-----1---3-------------------||
E|-----------------------------------4---5---------||
B|---7---7-----5---5-----3---3--------------5---9--||
F#|--5---------3---------1----------7---7----5---9--||
C#|--------------------------------5---------3---7--||
.. . .. . .. . .. .
C#|---------------------------5----------------------------------------------||
G#|----7---8----10---8----5--------8---7-------------------------------------||
E|------------------------------------------------------------2---4------4--||
B|--9---9----9----9----7---7----7---7-------2---4----6---4----------4-6-7---||
F#|-7--------7---------5--------5----------4---4----4---4----4---4---------7-||
C#|---------------------------------------2--------2--------2----------------||
.. . .. . .. . .. . .. . .. . .. .
C#|------------------------------------------||
G#|-----5---6-----3---5-----1---3------------||
E|-----------------------------------4---5--||
B|---7---7-----5---5-----3---3--------------||
F#|--5---------3---------1----------7---7----||
C#|--------------------------------5---------||
.. . .. . .. . .. .

Guitar left:
C#|---------------------------------------------------||
G#|---------------------------------------------------||
E|--------------------------------------------10-13--||
B|------------------9-12-----------------9-12--------||
F#|-------------8-11-----------------8-11-------------||
C#|--3-----7-10---------------9-----------------------||
. . . . . . . . . .
Guitar right:
C#|--------------------------------------------||
G#|--------------------------------------------||
E|-------------------------------------10-13--||
B|----------5-8-------------------9-12--------||
F#|------4-7------------------8-11-------------||
C#|--3-6------------7--9-----------------------||
. . . . . . . . . .

Both guitars:
C#|--------------------------------------------------------------------------||
G#|--------------------------------------------------------------------------||
E|--------------------------------------------------------------------------||
B|-------------------------------------------------------5-8-----------9-12-||
F#|---------------------------------------------------4-7----------8-11------||
C#|-6-3-7-4-6-3-7-4-8-5-6-3-7-4-6-3-7-4-8-5-9-6---3-6---------7-10-----------||
. . . . . . . . . . . . . . . . . . . . . . . . . . . . . .
C#|---------------------------------------------------------------------------||
G#|---------------------------------------------------------------------------||
E|-------------------------------------------------------6-9-----------10-13-||
B|---------------------------------------------------5-8----------9-12-------||
F#|-----------------------------------------------4-7---------8-11------------||
C#|-6-3-7-4-6-3-7-4-8-5-6-3-7-4-6-3-7-4-8-5-9-6-------------------------------||
. . . . . . . . . . . . . . . . . . . . . . . . . . . . . .
C#|-----------------------------------------------------||
G#|-----------------------------------------------------||
E|-----------------------------------------------------||
B|-----------------------------10-*9b------------------||
F#|------5h6p5-3h4p3-4h5p4--8-7--------3--3--3-3--3--3--||
C#|--3-6-------------------------------1--1--1-1--1--1--||
. . . . . .
C#|--------------------------------------------------------------------------||
G#|--------------------------------------------------------------------------||
E|--------------------------------------------------------------------------||
B|-------------------------------------------------------5-8-----------9-12-||
F#|---------------------------------------------------4-7----------8-11------||
C#|-6-3-7-4-6-3-7-4-8-5-6-3-7-4-6-3-7-4-8-5-9-6---3-6---------7-10-----------||
. . . . . . . . . . . . . . . . . . . . . . . . . . . . . .
C#|--------------------------------------------------------------------------||
G#|--------------------------------------------------------------------------||
E|-------------------------------------------------------6-9----------10-13-||
B|---------------------------------------------------5-8---------9-12-------||
F#|-----------------------------------------------4-7--------8-11------------||
C#|-6-3-7-4-6-3-7-4-8-5-6-3-7-4-6-3-7-4-8-5-9-6------------------------------||
. . . . . . . . . . . . . . . . . . . . . . . . . . . . . .
C#|------------------------------------------------------||
G#|------------------------------------------------------||
E|------------------------------------------------------||
B|-----------------------------10-*9b-------------------||
F#|------5h6p5-3h4p3-4h5p4--8-7--------3--3--3-3--3-3-3--||
C#|--3-6-------------------------------1--1--1-1--1-1-1--||
. . . . . . .
Left guitar:
C#|------------------------------||
G#|------------------------------||
E|------------------------------||
B|------------------------------||
F#|--222-1h2p1h2-222222-1h2p1h2--||
C#|--000---------000000----------||
... ......
Right guitar:
C#|-------||
G#|-------||
E|-------||
B|-------||
F#|--222--||
C#|--000--||
...
Both guitars:
C#|-----------------------||
G#|-----------------------||
E|-----------------------||
B|-----------------------||
F#|--222-2h3p2h3-6h7p6h7--||
C#|--000------------------||
...
C#|--------------------------------------------------||
G#|--------------------------------------------------||
E|--------------------------------------------------||
B|--------------------------------------------------||
F#|--222-1h2p1h2-222222-1h2p1h2-222-2h3p2h3-6h7p6h7--||
C#|--000---------000000---------000------------------||
... ...... ...
C#-------|-------|-------|-----------------------||
G#-------|-------|-------|-----------------------||
E-------|-------|-------|-----------------------||
B-------|-------|-------|-----------------------||
F#--222--|--222--|--222--|--222--2h3p2h3-6h7p6h7-||
C#--000--|--000--|--000--|--000------------------||
... ... ... ...
C#|--------------------------------------------------||
G#|--------------------------------------------------||
E|--------------------------------------------------||
B|--------------------------------------------------||
F#|--222-1h2p1h2-222222-1h2p1h2-222--2h3p2h3-6h7p6h7-||
C#|--000---------000000---------000------------------||
... ...... ...
C#|---------------------------------------------------||
G#|---------------------------------------------------||
E|---------------------------------------------------||
B|---------------------------------------------------||
F#|--2-2-2-2-2-2-2-2-2-2-2-2-2-2-2-2-2-2-2-2-2-2-2-2--||
C#|--0-0-0-0-0-0-0-0-0-0-0-0-0-0-0-0-0-0-0-0-0-0-0-0--||
. . . . . . . . . . . . . . . . . . . . . . . .
C#|-----------------------------------||
G#|-----------------------------------||
E|-----------------------------------||
B|-----------------------------------||X2
F#|--2-2-2-2-2-2-2-2-2-2-2-2-2-2-2-2--||
C#|--0-0-0-0-0-0-0-0-0-0-0-0-0-0-0-0--||
. . . . . . . . . . . . . . . .
C#|-----------------------------------------------------||
G#|-----------------------------------------------------||
E|-----------------------------------------------------||
B|--2/3----------2/3----------2/3-------------2/3------||X2
F#|--2/3-4p3-222--2/3-4p3-222--2/3-4p3-222222--2/3-4p3--||
C#|------4p3-000------4p3-000------4p3-000000------4p3--||
... ... ......
Left guitar:
C#|-----------------------------------------------------||
G#|-----------------------------------------------------||
E|-----------------------------------------------------||
B|--2/3----------2/3----------2/3-------------4-5-6-5--||
F#|--2/3-4p3-222--2/3-4p3-222--2/3-4p3-222222--2-3-6-5--||
C#|------4p3-000------4p3-000------4p3-000000--2-3-4-3--||
... ... ......
Right guitar:
C#|------------------------||
G#|------------------------||
E|------------------------||
B|------------------------||
F#|--222----222----222222--||
C#|--000----000----000000--||
... ... ......

Both guitars:
C#|-----------------------------------------------------||
G#|-----------------------------------------------------||
E|-----------------------------------------------------||
B|--4-5-6-5------4-5-6-5------4-5-6-5---------4-5-6-5--||X3
F#|--2-3-6-5-222--2-3-6-5-222--2-3-6-5-222222--2-3-6-5--||
C#|--2-3-4-3-000--2-3-4-3-000--2-3-4-3-000000--2-3-4-3--||
... ... ......
C#|-----------------------------------------------------||
G#|-----------------------------------------------------||
E|-----------------------------------------------------||
B|--4-5-6-5------4-5-6-5------4-5-6-5---------4-5-6/---||
F#|--2-3-6-5-222--2-3-6-5-222--2-3-6-5-222222--2-3-5/---||
C#|--2-3-4-3-000--2-3-4-3-000--2-3-4-3-000000--2-3-4/---||
... ... ......
C#|---------------------------||
G#|---------------------------||
E|---------------------------||
B|---------------------------||
F#|-3p2-0-1-2h3-0-1-0-3p2-0-1-||
C#|-3p2-0-1-2h3-0-1-0-3p2-0-1-||
. . . . .
Guitar left: Guitar right:
C#|---------0----------0--------|| C#|---------------------------||
G#|---------2----------2--------|| G#|---------------------------||
E|--3-3--0-0---3-3--0-0---3-3--|| E|--3-3--3-3--3-3--3-3--3-3--||
B|--2-2--------2-2--------2-2--|| B|--2-2--2-2--2-2--2-2--2-2--||
F#|--1-1--------1-1--------1-1--|| F#|--1-1--1-1--1-1--1-1--1-1--||
C#|-----------------------------|| C#|---------------------------||

Left guitar only:
C#|---------||
G#|---------||
E|---------||
B|--4------||
F#|--2------||
C#|----3-0--||

Both guitars:
C#|------------------------------------------------------------||
G#|------------------------------------------------------------||
E|------------------------------------------------------------||
B|--4-------------------------------------5--7b-5-------------||X3
F#|--2---------7----(b5)----------------5-7--7--------5-7------||
C#|----3-0-3/6---6-6----00-3b-0--3-5-7-------------7-----3456--||
. . .. . . .
C#|----------------------------||
G#|----------------------------||
E|-------------------------7--||
B|--4-------------------7-----||
F#|--2-------------5--7h9-9----||
C#|----3-0-3-6--5h7------------||

Third guitar:
C#|------------------15-16-11------------------------------------------------||
G#|-------13-16-15-16--------------------------------------------------------||
E|--12-13-------------------15-14-15-15/19-17-14-15-------------------------||
B|-------------------------------------------------16-17-12-13-12-----------||
F#|---------------------------------------------------------------13-12-9----||
C#|----------------------------------------------------------------------10--||

Left and right guitars:
C#|------------------------------------------||
G#|------------------------------------------||
E|------------------------------------------||
B|-------5-4-------5-4-------5-4-------5-4--||
F#|--2-3--6-5--2-3--6-5--2-3--6-5--2-3--6-5--||
C#|--3-4-------3-4-------3-4-------3-4-------||

Left guitar:
C#|-----------------------------------------||
G#|-----------------------------------------||
E|-----------------------------------------||
B|------------------5-4-----4-5-3-4--------||
F#|--4h6---2-3-5h6-0-6-5-4h6-4-5-3-4-4-3-1--||
C#|------0-3-4---------------2-3-1-2-4-3-1--||
. .
Right guitar:
C#|----------------------------------||
G#|----------------------------------||
E|----------------------------------||
B|--------------5-4--4-5-3-4--------||
F#|----2-3-----0-6-5--4-5-3-4-4-3-1--||
C#|--0-3-4------------2-3-1-2-4-3-1--||
. . . . . . . . .

Both guitars: X2
C#|-----------------------||
G#|-----------------------||
E|----4-------4-------4--||
B|--7-3-5-7-7-3-5-7-7-3--||
F#|--6-2-4-6-6-2-4-6-6-2--||
C#|--5---3-5-5---3-5-5----||
. . . . . . . . . .

Left guitar:
C#|---------------------------------------------------||
G#|---------------------------------------------------||
E|--4/8-----4/8-----6/9-----4/8-----6/9-----4/8------||
B|-----7-------7-------8-------7-------8-------7-----||
F#|------6/2-----6/4-----7/2-----6/4-----7/2-----6/4--||
C#|---------------------------------------------------||

Right guitar: X2
C#|-----------------------||
G#|-----------------------||
E|----4-------4-------4--||
B|--7-3-5-7-7-3-5-7-7-3--||
F#|--6-2-4-6-6-2-4-6-6-2--||
C#|--5---3-5-5---3-5-5----||
. . . . . . . . . .

Both guitars:
C#|-----------------------------||
G#|-----------------------------||
E|-----------------------------||
B|--6-5--3-4---6-5--3-4---6-5--||
F#|--4-3--1-2---4-3--1-2---4-3--||
C#|--4-3--1-2---4-3--1-2---4-3--||


Get this song at amazon.com      Ebay     Ringtones Ringtones  


Learn to play: Songwriting, Piano, Harmonica, Guitar

Related Between The Buried And Me Tabs

Laser Speed Bass tabs
Lost Perfections A And B tabs
Arsonist tabs
Medicine Wheel tabs
Bicycle Race Bass tabs
Ants Of The Sky Solo tabs
Day I Tried To Live Bass tabs
Primer tabs
Aesthetic tabs
Camilla Rhodes tabs
Selkies The Endless Obesession Solo tabs
Alaska tabs
Shevanel Take 2 tabs
Ants Of The Sky tabs
Selkies The Endless Obsession Bass tabs
Prequel To The Sequel Intro tabs
Viridian Bass tabs
Colorblind tabs
More Of Myself To Kill tabs
Ad A Dglgmut tabs


Guitar Tabs









All tabs are property and copyright of their owners. All tabs provided for educational purposes only. Privacy Policy, DMCA