Between The Buried And Me

Aspirations Tabs



More from Between The Buried And Me

Between The Buried And Me Tabs
Between The Buried And Me Lyrics

"Aspirations" notes on A string(F#) for this part picked very quick
part I
c#-------------------------------------------------------------------|
F#-------------------------------------------------------------------|
B -------------------------------------------------------------------|
E --5--------5------------10-9---77-7/9-9---9--7^9p7/5--7--5^7/4-----|
G --7--777---7--7-7-7------------------------------------------------|
C#-------------------------------------------------------------------|
part II breakdown pt.
c#------------------------e----------------------------------------------|
F#------------------------n----------------------------------------------|
B ------------------------d----------------------------------------------|
E --1-------5--1-------7--p----------------2-----------2-2-----------2-2-|
G --3--333--7--3--333--9--t------------3---2-3-5-------2-2----5---4--2-2-|
C#------------------------1--0-0--000--1---0-1-3-------0-000--3-0-2--0-0-|
repeat breakdown a few times, then slow it down to half time. pt3
c#--------------------e-----------------------------------------------------|
F#--------------------n-----------------------------------------------------|
B --------------------d------------------------------5^8p5------------------|
E --------2--5p0------p--444444444--555555555--4^7p4------------------------|
G ------5-2--3p0------t---------------------------------------4-5-2--4-5--2-|
C#-000--3-0-----------2---------------------------------------2-3-0--2-3--0-|
repeat
c#------------------------e----------------------------------2--------------|
F#------------------------n---5-----5---5---------------------2-------------|
B-------------------------d---6-----6-----6----6-6--6----------2------------|
E-----------2-----------2-p---6-----6-------6--7-7---7-----4----4--4/6-6/4--|
G-----------2-----------2-t---4--4--4----------7-7----7----4-------4/6-6/4--|
C#--0000000-0--00000000-0-3--------------------5-5---------2-------2/4-4/2--|
Harmony part
c#--12-11--12-11--12-11--12-11--12-11--12-9--12-9---12-9--12-9--12-9--12----|
F#-------12-----12-----12-----12-----12----12-----12----12----12----12--12--|
B---------------------------------------------------------------------------|
E---12-11--12-11--12-11--12-11--12-11--12-9--12-9---12-9--12-9--12-9--12----|
G--------12-----12-----12-----12-----12----12-----12----12----12----12--12--|
C#--------------------------------------------------------------------------|
c#--17-16--17-16--17-16---17-16--17-16--17-11--14-11--14-11--------|
F#-------17-----17-----17------17-----17-----12-----12-----12------|
C#-----------------------------------------------------------------|
E---17-16--17-16--17-16---17-16--17-16--17-11--14-11--14-11--------|
G--------17-----17-----17------17-----17-----12-----12-----12------|
B------------------------------------------------------------------|
solo part
|----------------------------------------------------------------|
|----------------------------------------------------------------|
|----------------------------------------------------------------|
|--9/11-11/12-12/14-14/16-1716-1614-1412--127------7~---12---|
|-------------------------------------------------10-9--------12-|
|----------------------------------------------------------------|
|-----------------------------------------------------------------------------------------|
|-----------------------------------------------------------------------------------------|
|-----------------------------------------------7/9---------9/12~--11h12p11---11h12p11----|
|--11--12--11--12--11--12--11--12-----10-9-7--------12-10-9----------------12---------12--|
|----12--12--12--12--12--12--12--12----------10-------------------------------------------|
|-----------------------------------------------------------------------------------------|
|--------------------------------------------------------------|
|--------------------------------------------------------------|
|--15-14-12--------------------7/10~-9h10p9----9h10p9----------|
|-----------15-12-12/10-10/8-7-------------10--------10--------|
|--------------------------------------------------------------|
|--------------------------------------------------------------|
|----------------------------------------------------------------|
|----------------------------------------------------------------|
|--9~-9/12-12~-12/14-14~-14/17-17~--17/19-19~--------------------|
|----------------------------------------------------------------|
|----------------------------------------------------------------|
|----------------------------------------------------------------|
- |----------a bit fast-------------------------------------------------|
|---------------------------------------------------------------------------------|
|--------------------10h12-12/13-12h13p12-10-12-12-10-----------------------------|
|--9-9-9h10-10/12--12--------------------------------12-10--10h12p10--------------|
|--------------------------------------------------------------------12-10-9------|
|---------------------------------------------------------------------------------|
|---------------------------------------------------------------------------------|
(then a solo fill I don't want to tab)
Part 6
|------------------------------------------------|
|------------------------------------------------|
|-------------------------------10-10-9-9--------|
|--12-12-12-12-12-12~-12--10-10-10-10-9-9--------|
|--12-12-12-12-12-12~-12--10-10--8--8-7-7--------|
|--12-12-12-12-12-12~-12--10-10------------------|
|--pm------------------------------------------|
Part 6 keeps playing while this part goes
Part 7
|-----------------------------------------|
|-----------------------------------------|
|--9h10h9----9-10-------------10-10-9-9---|
|---------12------12-12-10-10-------------|
|-----------------------------------------|
|-----------------------------------------|
if this is wrong then improvise.



Get this song at amazon.com      Ebay     Ringtones Ringtones  


Learn to play: Songwriting, Piano, Harmonica, Guitar

Related Between The Buried And Me Tabs

Destructo Spin tabs
Reaction tabs
Selkies The Endless Obsession Bass tabs
Arsonist tabs
Selkies The Endless Obsession Solo tabs
Ad A Dglgmut Solo tabs
Need For Repetition tabs
Medicine Wheel tabs
Bicycle Race Bass tabs
Little 15 Bass tabs
Croakes And Boatshoes tabs
Selkies The Endless Obesession Solo tabs
Alaska tabs
More Of Myself To Kill tabs
Mordecai tabs
Backwards Marathon Bass tabs
Camilla Rhodes tabs
Ants Of The Sky tabs
Colorblind Bass tabs
Laser Speed tabs


Guitar Tabs









All tabs are property and copyright of their owners. All tabs provided for educational purposes only. Privacy Policy, DMCA