Between The Buried And Me

All Bodies Tabs



More from Between The Buried And Me

Between The Buried And Me Tabs
Between The Buried And Me Lyrics



between the buried and me

all bodies



c#|---------------------------------------------------------------------------|

g#|-4h5p4p0-------------------------------------------------------------------|

e|---------4\3------55---7-5-7-5-7-5-7-5-7-5-7-----5-7-5-7---5-7-5-7-5-------|

b|-------------4/5--55-3-7-5-7-5-7-5-7-5-7-5-7-3-3-5-7-5-7-3-5-7-5-7-5-66-55-|

f#|------------------33-5-5-3-5-3-5-3-5-3-5-3-5-5-5-3-5-3-5-5-3-5-3-5-3-77-66-|

c#|------------------33---5-3-5-3-5-3-5-3-5-3-5-----3-5-3-5---3-5-3-5-3-------|

.. . . . . . . . . . . . . . . . . . . . .



repeat 2x

c#|-------------------------------------------------------|

g#|-------------------------------------------------------|

e|---7-5-7-5-7-5-7-5-7-5-7-----5-7-5-7---5-7-5-7-5-------|

b|-3-7-5-7-5-7-5-7-5-7-5-7-3-3-5-7-5-7-3-5-7-5-7-5-66-55-|

f#|-5-5-3-5-3-5-3-5-3-5-3-5-5-5-3-5-3-5-5-3-5-3-5-3-77-66-|

c#|---5-3-5-3-5-3-5-3-5-3-5-----3-5-3-5---3-5-3-5-3-------|

. . . . . . . . . . . . . . . . . . . .



c#|----------------------------------------------------|

g#|----------------------------------------------------|

e|------------------------------------------2---------|

b|-5-----------------3-----5------------1-3---1-------|

f#|-3------------3*~~-1-----3--------------------4-0---|

c#|---4-1--1-4-1--------2-1---4-1--1-4-1-------------3-|



c#|------------------------------------------------------------------------------|

g#|---------------------------------------------------------1-3-5----4h5p4p0-----|

e|------------------------------------------2----------2-4-------3----------4\3-|

b|-5-----------------3-----5------------1-3---1---2-4-5-------------------------|

f#|-3------------3*~~-1-----3--------------------4-------------------------------|

c#|---4-1--1-4-1--------2-1---4-1--1-4-1-----------------------------------------|



c#|---------------------------------------------------------------------------------|

g#|---------------------------------------------------------------------------------|

e|---------------------------------------------------------------------------------|

b|-4-7-9---2-5-7---5-7-2-3-5-0-4-7-9--9-7-9-7-12-10-12-10-2-5-7--7-5-7-5-10-8-10-8-|

f#|-2-5-7---0-3-5---------------2-5-7--7-5-7-5-10-8--10-8--0-3-5--5-3-5-3-8--6-8--6-|

c#|-2-5-7---0-3-5---------------2-5-7--7-5-7-5-10-8--10-8--0-3-5--5-3-5-3-8--6-8--6-|

. . . . . . . . . . . . . . . . .



c#|------------------------------------------------------------------3-5-0-|

g#|------------------------------------------------------------0-1-3-------|

e|----------------------------------------------------------2-------------|

b|-4-7-9-9-7-9-7-12-10-12-10-2-5-7-7-5-7-5-10-8-10-8-----2----------------|

f#|-2-5-7-7-5-7-5-10-8--10-8--0-3-5-5-3-5-3-8--6-8--6-2-5-2----------------|

c#|-2-5-7-7-5-7-5-10-8--10-8--0-3-5-5-3-5-3-8--6-8--6-2-5------------------|

. . . . . . . . . . . . . . . .



(1:08) lead guitar

c#|----------------------------------------------------10-11-----10-----8------------|

g#|-------------------------------------------------13-------9-8----9-8--9-8--------|

e|---------5-7-8---5/12h13p12h13p12h13-------10-12---------------------------10-8-7-|

b|-----7-8-------6---------------------12-13----------------------------------------|

f#|---5------------------------------------------------------------------------------|

c#|-3--------------------------------------------------------------------------------|



(1:08) rhythm guitar (1:22)

c#|--------------------------------------------------------------------------------|

g#|--------------------------------------------------------------------------------|

e|--------------------------------------------------------------------------------|

b|-------------------------------5-5-5555----------------------7-7-7777--8-8-8888-|

f#|-5-5-5555--6-6-6666--3-3-3333--3-3-3333--5-5-5555--3-3-3333--5-5-5555--6-6-6666-|

c#|-3-3-3333--4-4-4444--1-1-1111--3-3-3333--3-3-3333--1-1-1111--5-5-5555--6-6-6666-|

. . .... . . .... . . .... . . .... . . .... . . .... . . .... . . ....











(1:22)

c#|----------------------5---5-------------------3---3-|

g#|--------------------8---8-------------------6---6---|

e|---------7-8-----10---------------5-------8---------|

b|-------8-----8-7--------------8-7---8-7-5-----------|

f#|----10----------------------5-----------------------|

c#|-11-------------------------------------------------|



(1:23) (1:23)

c#|------------------------| c#|-------------------------------10-8---|

g#|---------------4\-------| g#|----------8-10-/13----10-11-10------8-|

e|-5---5-7-8---5----0-----| e|-5---8-10----------12-----------------|

b|-5---------7----------1-| b|-5------------------------------------|

f#|-3----------------------| f#|-3------------------------------------|

c#|------------------------| c#|--------------------------------------|



(1:44)

c#|----------------------------------------------------------|

g#|----------------------------------------------------------|

e|---------------5----------------------------5------7------| repeat thru solo

b|-5------2------5---5---7------9------4------5------7------|

f#|-5------2------3---5---7------9------4------3------5------|

c#|-3------0----------3---5------7------2------3------5------|

(.) (.)



(1:59)

c#|-------------------------------------------------------------------------|

g#|-------------------------------------------------------------------------|

e|-16-------14-16-17-16-14----------14-16-------14-16-17-16-14----------14-|

b|----12-17----------------17-16-17-------14-17----------------17-16-17----|

f#|-------------------------------------------------------------------------|

c#|-------------------------------------------------------------------------|



c#|-------------------------------------------------------------------------|

g#|-------------------------------------------------------17-13----13-17-13-|

e|-17-12----12-17-12-19-16----16-19-16-17-14----14-16-17-------14----------|

b|-------14----------------17----------------14----------------------------|

f#|-------------------------------------------------------------------------|

c#|-------------------------------------------------------------------------|



c#|-19-14----------14-19-14----------14-21-17----------17-21-17----------17-|

g#|-------15----15----------15----15----------19----19----------19----19----|

e|----------16----------------16----------------18----------------18-------|

b|-------------------------------------------------------------------------|

f#|-------------------------------------------------------------------------|

c#|-------------------------------------------------------------------------|

repeat 1x

c#|-20-15----------15-20-15----------15-17-14----------14-17-14----------|----|

g#|-------17----17----------17----17----------15----15----------15-------|----|

e|----------17----------------17----------------14----------------14----|----|

b|-------------------------------------------------------------------16-|-17-|

f#|----------------------------------------------------------------------|----|

c#|----------------------------------------------------------------------|----|









(2:55) repeat 1x

c#|-15h19p15----------15h19p15----------14h18p14----------14h18p14----------|

g#|----------17----17----------17----17----------16----16----------16----16-|

e|-------------16----------------16----------------15----------------15----|

b|-------------------------------------------------------------------------|

f#|-------------------------------------------------------------------------|

c#|-------------------------------------------------------------------------|

repeat 1x

c#|-12h15p12----------11h15p11----------14h18p14----------14h18p14----------|

g#|----------13----13----------13----13----------16----16----------16----15-|

e|-------------12----------------12----------------15----------------15----|

b|-------------------------------------------------------------------------|

f#|-------------------------------------------------------------------------|

c#|-------------------------------------------------------------------------|

repeat 1x

c#|-15h19p15----------15h19p15----------14h18p14----------14h18p14----------|

g#|----------17----17----------17----17----------16----16----------16----16-|

e|-------------16----------------16----------------15----------------15----|

b|-------------------------------------------------------------------------|

f#|-------------------------------------------------------------------------|

c#|-------------------------------------------------------------------------|



c#|-12h15p12----------11h15p11----------14h18p14----------14h18p14----------|

g#|----------13----13----------13----13----------16----16----------16----15-|

e|-------------12----------------12----------------15----------------15----|

b|-------------------------------------------------------------------------|

f#|-------------------------------------------------------------------------|

c#|-------------------------------------------------------------------------|



whammy bar

c#|-12h15p12----------11h15p11--------------|

g#|----------13----13----------13----13-2*\-|

e|-------------12----------------12----2*\-|

b|-----------------------------------------|

f#|-----------------------------------------|

c#|-----------------------------------------|

Added by tabs-database.com and our distinguished partners
Get this song at amazon.com      Ebay     Ringtones Ringtones  


Learn to play: Songwriting, Piano, Harmonica, Guitar

Related Between The Buried And Me Tabs

Ad A Dglgmut tabs
Naked By The Computer tabs
Need For Repetition tabs
Coulrophobia tabs
Fire For A Dry Mouth tabs
Camilla Rhodes tabs
Mordecai tabs
Backwards Marathon Bass tabs
Laser Speed Bass tabs
More Of Myself To Kill tabs
Lost Perfections A And B tabs
Selkies The Endless Obsession Bass tabs
Destructo Spin tabs
Territory Bass tabs
Laser Speed tabs
Reaction tabs
Prequel To The Sequel Intro tabs
Viridian Bass tabs
Day I Tried To Live Bass tabs
Colorblind tabs


Guitar Tabs









All tabs are property and copyright of their owners. All tabs provided for educational purposes only. Privacy Policy, DMCA