Between The Buried And Me

Ad A Dglgmut Solo Tabs



More from Between The Buried And Me

Between The Buried And Me Tabs
Between The Buried And Me Lyrics

Ad a Dglgmut by Between the Buried and me
I’m tabbing this song in standard tuning but if you want to play it in their tuning (C#
then just move everything up 3 frets.
The chords are on top of each bar.
Part A (Chords played: Db, Bb, Gb, Ab)
----9-8h9p8------------------------------------------------|
----------------11-9---------------------------------------|
-----------------------8--10-------------------------------|
-----------------------------------------------------------|
-----------------------------------------------------------|
-----------------------------------------------------------|
----------------------------------------------------------------|
----------------------------------------------------------------|
----10h11p10---8--10--11-10-------------------------------------|
-------------------------------------8--------------------------|
----------------------------------------------------------------|
----------------------------------------------------------------|
Sweep pick that
---------------------8-------------------------------------------|
--------------9h11-----------------------------------------------|
----------10-----------10----------------------------------------|
------11---------------------------------------------------------|
-----------------------------------------------------------------|
-----------------------------------------------------------------|
Sweep pick that
--13 ~ -------8--9-------------------------10--------------------|
--------------------------------------9h11------11---------------|
---------10----------------------10------------------------------|
---------------------------8h11----------------------------------|
-----------------------11----------------------------------------|
-----------------------------------------------------------------|
---12-13-12-------------------------------------------------------|
----------------9-11--11-9----------------------------------------|
-------------------------------8-10-------------------------------|
------------------------------------------------------------------|
------------------------------------------------------------------|
------------------------------------------------------------------|
Advanced sweep picking :)
----------------8h11t18p11p8----8h11t16p11p8---8h11---------------|
--------------9---------------9--------------9--------------------|
------------8-----------------------------------------------------|
--------10--------------------------------------------------------|
----11------------------------------------------------------------|
------------------------------------------------------------------|
--13 ~ --------------------------------------------------------------|
----------13 ~ --9---------------------------------------------------|
---------------------10h11p10-8-10p8---------------------------------|
--------------------------------------------9-11---------------------|
---------------------------------------------------------------------|
---------------------------------------------------------------------|
Part B (Chords: E, C#, F#, A, Ab)
Not sure about this part
--------------------------------------------------------------|
--------------------------------------------------------------|
--------------------------------------------------------------|
--------------------------------------------------------------|
--------------------------------------------------------------|
--------------------------------------------------------------|
----------11-14-12-11-------------11----------------------------|
------12-----------------12-----12------------------------------|
--11-------------------------11---------------------------------|
----------------------------------------------------------------|
----------------------------------------------------------------|
----------------------------------------------------------------|
---12------------------------------------------------------------|
-------12--10-9-10-9------------12-------------------------------|
--------------------------98/9----------9h10p9------------------|
-----------------------------------------------------------------|
-----------------------------------------------------------------|
-----------------------------------------------------------------|
---------------------------------------------------------------|
---------------------------------------------------------------|
-------9-11—8h9p8----------------------------------------------|
-------------------------11-10-11------------------------------|
--------------------------------------11-----------------------|
---------------------------------------------------------------|
--------------------9--12-------------------------------------------|
------------------9--------12-9--------9----------------------------|
----------------9-----------------9-11------------------------------|
------------11------------------------------------------------------|
--------11----------------------------------------------------------|
--9-12--------------------------------------------------------------|
Sweep…
--------------11-16-11---------------------------------------11-14/17p14-----|
----------13-------------13-------------------------------13-------------16--|
------13---------------------13-------------------11-14----------------------|
--13-----------------------------13-----------13-----------------------------|
----------------------------------------12-15--------------------------------|
-----------------------------------------------------------------------------|
Part C (Chords: Db, Bb, Gb, Ab)
Notes to hold are in bold
---9---8~ -----------------------------------------------------------|
-------------9~ -----------------------------------------------------|
--------------------11--8-10------------------8-10-------------------|
--------------------------------10-11---10------------10--11---------|
---------------------------------------------------------------------|
---------------------------------------------------------------------|
(not really sure of this part)
------------------------------------------------9--11-9-8-11~ ------|
--------------------------9---------11p9----------------------------|
-----------------------8----9-8-9-----------------------------------|
-11-10-----10h11----------------------------------------------------|
---------11---------------------------------------------------------|
--------------------------------------------------------------------|
Tabbed by Ryan L.
Please Rate :)



Get this song at amazon.com      Ebay     Ringtones Ringtones  


Learn to play: Songwriting, Piano, Harmonica, Guitar

Related Between The Buried And Me Tabs

Aspirations tabs
Ad A Dglgmut tabs
Ants Of The Sky tabs
More Of Myself To Kill tabs
Viridian Bass tabs
Territory Bass tabs
All Bodies tabs
Little 15 Bass tabs
Selkies The Endless Obesession Solo tabs
Laser Speed Bass tabs
Naked By The Computer tabs
Primer tabs
Fire For A Dry Mouth tabs
Medicine Wheel tabs
Aesthetic tabs
What We Have Become tabs
Ad A Dglgmut Solo tabs
Laser Speed tabs
Alaska Intro tabs
Prequel To The Sequel Intro tabs


Guitar Tabs









All tabs are property and copyright of their owners. All tabs provided for educational purposes only. Privacy Policy, DMCA