Ben Harper

Ben Harper - Diamonds Of The Inside guitar tab

Diamonds of the inside

Ben Harper from � diamonds on the inside �

Tabbad by lafokalawe

normal tuning with capo on 1st fret

Keep ringing the bass note on 6th and 5th strings

G Am7

E|-----------||-------------------------|----3--3---3-------3------|

B|-----------||----0--0--0-0-0-0-0------|----1--1-1-1-1-1-1-1------|

G|--0--------||----0--0--0-0-0-0-0------|----2----2-2-2-2-2-2------|

D|---2p0-----||----0--0--0-0-0-0-0------|----2----2---2-2-2--------|

A|-----2p0---||-------------------------|-0--------------------0-1-|

E|-------3p0-||-3-------------------3-4-|--------------------------|

Bm7 Am7 G (1,2,3)

E|---------------------------------3--|---------3-------3----------|

B|----3-3---3-------1-1----------0-0--|---0-0---1--0-0--1--0--0----|

G|----2-2h4-2-----0-0-0h2-0------0-0--|---0-0---0--0-0--0--0--0----|

D|----4-4---4-----2---2---2------0-0--|---0-0---2--0-0--2--0--0----|

A|-2-----------0-------------------2--|----------------------------|

E|---------------------------3-----3--|----------------------------|

Chorus

(4)

G F C

E|-------3------------------|--------------------------------------|

B|----0--0------------------|----------1-------------1-------------|

G|----0--0--0-0--0----------|----------0h2-0---------0h2p0---------|

D|----0--0--0-0—--2p0-------|-----3--3-3---3-----0h2--------2------|

A|-------X-----------2p0----|-3---3--3---------3-------------------|

E|-3-----3-------------3p0--|-1------------------------------------|

Get this song at:  amazon.com sheetmusicplus.com

Share your thoughts

Comments