Ben Harper

Ben Harper - Beloved One (Acoustic) guitar tab

Song: Beloved One (Acoustic)

Artist: Ben Harper

Album: Live From Mars

Tabbed by J�r�me Desfeux (defff@caramail.com)

h= hammer-on

p= pull-off

Intro:

For this intro, just play these next chords a bit slower as

you'd normally do

e)--3----3----3----3----3----------

B)--1----2----3----3----0----------

G)--0----3----0----0----0----------

D)--2----2----0----0----2----------

A)--3---------2----0----2----------

E)------------3----2----0----------

Verse:

e)-----0----0-0-0------3----3-3-3---------------------------3----3-3-3--

B)-----1----1-1-1------3----3-3-3-------3-3-------3-3-------0----0-0-0--

G)-----0----0-0-0------2----2-2-2-------0-0-------0-0-------0----0-0-0--

D)-----2----2-2-2---0--0----0-0-0-------0-0-------0-0-------2----2-2-2--

A)--3--3----3-3-3-----------------------2-2-------0-0-------2----2-2-2--

E)----------------------------------3---3-3---2---2-2---0---0----0-0-0--

e)------3-3---------3------0----0-0-0------3----3-3-3------3----3-3-3---

B)------0-0---------0------1----1-1-1------3----3-3-3------0----0-0-0---

G)------0-0---------0------0----0-0-0------2----2-2-2------0----0-0-0---

D)------2-2---------0------2----2-2-2---0--0----0-0-0------2----2-2-2---

A)------2-2---0-h-2-2---3--3----3-3-3----------------------2----2-2-2---

E)--0---0-0--------------------------------------------0---0----0-0-0---

e)------3-3---------3---------------------------------------------------

B)------0-0---------0---------------------------------------------------

G)------0-0---------0---------------------------------------------------

D)------2-2---------0---------------------------------------------------

A)------2-2---0-h-2-2---------------------------------------------------

E)--0---0-0-------------------------------------------------------------

Chorus:

e)------3---3-3-3------3---3-3-3------3---3-3-3-------3-3---------------

B)------1---1-1-1------3---3-3-3------3---3-3-3-------3-3---------------

G)------0---0-0-0------0---0-0-0------2---2-2-2-------0-0---------------

D)------2---2-2-2------0---0-0-0---0--0---0-0-0-------0-0---------------

A)---3--3---3-3-3------2---2-2-2----------------------2-2---0---2---3---

E)------------------3--3---3-3-3-------------------3--3-3---------------

e)---3---3-3-3-----3---3-3-3-------3---3-3-3-2----2-2-------------------

B)---1---1-1-1-----3---3-3-3-------3---3-3-3-3----3-3-------------------

G)---0---0-0-0-----0---0-0-0-------2---2-2-2-2----2-2-------------------

D)---2---2-2-2-----0---0-0-0---0---0---0-0-0-0----0-0-------------------

A)---3---3-3-3-----2---2-2-2----------------------------0-h-2-----------

E)--------------3--3---3-3-3--------------------------------------------

Get this song at:  amazon.com sheetmusicplus.com

Share your thoughts

Comments