Beatles

Beatles - What Youre Doing guitar tab

TAB: What You're Doing

MUSIC BY: The Beatles (From the Beatles for Sale album)

TABBED BY: The Beatles Central Team (jpgr_beatles@yahoo.com)

Intro:

(The following riff will be called Riff 1. It should be played

throughout the song whenever the progression "D-G" is present.)

D G

E|---------------------------------|--------------------------------

B|---------------------------------|--------------------------------

G|-----------------4---2-----------|--------------------------------

D|-0-----------4-----------4---2---|---------2---0---2---4------0---

A|---------------------------------|--------------------------------

E|---------------------------------|--------------------------------

^ ^ ^ ^ ^ ^ ^ ^

(Repeat Riff 1)

Verse 1:

D G D G

Look what you're doing I'm feeling blue and lonely would it

Bm G D G

be too much too ask of you What You're Doing to me

Verse 2:

D G D G

You got me running and there's no fun in it why should it

Bm G D G

be too much too ask of you What You're Doing to me

Bridge:

G Bm G Bm

I've been waiting here for you wondering what you're gonna do

E A

should you need a love that's true it's me

Verse 3:

D G D G

Please stop your lying you got me crying girl why should it

Bm G D G

be too much too ask of you What You're Doing to me

Solo:

D G7

E|-5-----------------------5-------|-9-------7----------------------

B|-7-----------------------7-------|-8-------6----------------------

G|---------------------------------|--------------------------------

D|---------------------------------|--------------------------------

A|---------------------------------|--------------------------------

E|---------------------------------|--------------------------------

^ ^ ^ ^ ^ ^ ^ ^

D G7

E|-5---------------------------5---|-9---9---7---7------------------

B|-7---------------------------7---|-8---8---6---6------------------

G|---------------------------------|--------------------------------

D|---------------------------------|--------------------------------

A|---------------------------------|--------------------------------

E|---------------------------------|--------------------------------

^ ^ ^ ^ ^ ^ ^ ^

G7 D

E|-2-------------------------------|--------------------------------

B|-----3-------------------3-------|--------------------------------

G|-------------4-------------------|-----4-------------------4------

D|---------------------------------|-------------5------------------

A|---------------------------------|-5------------------------------

E|---------------------------------|--------------------------------

^ ^ ^ ^ ^ ^ ^ ^

D G7

E|---------------------------------|--------------------------------

B|---------------------------------|--------------------------------

G|-4-------------------------------|-2-------------------2----------

D|-----5---------------------------|-4-----------------------4------

A|-------------5---------------5---|--------------------------------

E|---------------------------------|--------------------------------

^ ^ ^ ^ ^ ^ ^ ^

Bridge:

G Bm G Bm

I've been waiting here for you wondering what you're gonna do

E A

should you need a love that's true it's me

Verse 4:

D G D G

Please stop your lying you got me crying girl why should it

Bm G D

be too much too ask of you What You're Doing to me

Coda:

G D G D

What you're doing to me What you're doing to me

G D A

D G7 D G7

-----------------------------------------------------------------

| Tabbed By the Beatles Central Team (jpgr_beatles@yahoo.com) |

| Visit Beatles Central for every major release by The Beatles |

| in MIDI and Tab form (over 250 songs), as well as biographies.|

| http://members.tripod.com/~jpgr_beatles/index.html |

-----------------------------------------------------------------

Get this song at:  amazon.com

Share your thoughts

0 Comments found