Beatles

Beatles - Twist & Shout guitar tab

e: Sun, 17 May 1998 14:51:18 +1000

TWIST AND SHOUT

INTRO

D G

E------------------------------2------------------------------------

B------------------------------3------------------------------------

G------------------------------2------------------------------------

D------------------------0-----------------------0--------0---------

A------0-----2-----4-----------------------------2--------2---------

E------------------------------------------------3--------3---------

A

E-------------------------------------------------------------------

B---2---------------------------------------------------------------

G---2---------------------------------------------------------------

D---2---------------------------------------------------------------

A---0-----0-----0-----0-----0---------------------------------------

E-------------------------------------------------------------------

PLAY INTRO UNDER THE VOCAL

Well shake it up baby now, twist and shout

Come on come on come on come on baby , now work it on out

Well work it on out , you know you look so good

You know you got me goin' now , just like you knew you would

Ahh Ahh Ahh Ahh

E---------------------------------------0--------------3------------

B------------------------2--------------2--------------2------------

G---------2--------------2--------------2--------------2------------

D---------2-----2-----2--2-----2-----2--------2-----2---------------

A---------0--0-----0--------0-----0--------0-----0------------------

E-------------------------------------------------------------------

CONTINUE WITH THE INTRO UNDER THE VOCALS

Well shake it up baby now, twist and shout

Come on come on come on come on baby , now work it on out

You know you twist it little girl , you know you twist so fine

Come on and twist a little closer now, and let me know that you're mine

Well shake it up baby now, twist and shout

Come on come on come on come on baby , now work it on out

You know you twist it little girl , you know you twist so fine

Come on and twist a little closer now, and let me know that you're mine

Well shake it shake it shake it baby now

Well shake it shake it shake it baby now

Well shake it shake it shake it baby now

GUITAR BREAK

ETC

E-------------------------------------------------------------------

B------------------------0-----3-----2-----------0------------------

G---------2--------2-----------4-----2-----2--------2---------------

D---------2--------2-----------------------2--------2---------------

A-------------------------------------------------------------------

E-------------------------------------------------------------------

Tabbed by John Constantine

I also have an acoustic guitar arrangement of this song

...email me if you are interested

John_Constantine@bushboakeallen.com

Get this song at:  amazon.com

Share your thoughts

0 Comments found